Monday, March 2, 2009

God Will Make A Way

God Will Make A WayA worship song by Don Moen. In 1 Corinthians 10:1-13, Paul writes to the Corinthians about learning from their forefathers' history. The Israelites' exodus from slavery in Egypt was recorded so that we might learn from their past mistakes, and as warnings to not follow in their footsteps (1 Corinthians 10:6, 11). They performed many evil things in God's sight and received their just punishment.

Likewise, the lesson for us today is that if we think we are standing firm, let us be wary that we do not fall like the Israelites did (1 Corinthians 10:12), who while received God's favour in their freedom from slavery, still chose to disobey Him. And this is the encouragement that Paul gives - that such temptations to rebel against God has been around since our forefathers' times. But God is faithful in providing us a way out. He will not let us be tempted beyond what we can bear! (1 Corinthians 10:13). God will make a way, when there seems to be no way. He works in ways we cannot see, He will make a way for me. Thank you God!





-----------------------------------------------------------------
GOD WILL MAKE A WAY – Don Moen
-----------------------------------------------------------------
Tabbed by: Graham Choo
Email: da_tweens@yahoo.co.uk

Tuning: Standard
Intro:
   G  Dsus C9 Dsus G  Dsus C9 Dsus
e|-3---3---3---3---3---3---3---3---------------------------------|
B|-3---3---3---3---3---3---3---3---------------------------------|
G|-0---2---0---2---0---2---0---2---------------------------------|
D|-0---0---2---0---0---0---2---0---------------------------------|
A|-2-------3-------2-------3-------------------------------------|
E|-3---------------3---------------------------------------------|

Verse:
   G  Dsus C9  G   C9  Bm  Em  Am Dsus
e|-3---3---3---3---3---2---0---0---3-----------------------------|
B|-3---3---3---3---3---3---0---1---3-----------------------------|
G|-0---2---0---0---0---4---0---2---2-----------------------------|
D|-0---0---2---0---2---4---2---2---0-----------------------------|
A|-2-------3---2---3---2---2---0---------------------------------|
E|-3-----------3-----------0-------------------------------------|

   G  Dsus C9  G   C9  Bm  Em  Am Dsus C9 Dsus G
e|-3---3---3---3---3---2---0---0---3---3---3---3-----------------|
B|-3---3---3---3---3---3---0---1---3---3---3---3-----------------|
G|-0---2---0---0---0---4---0---2---2---0---2---0-----------------|
D|-0---0---2---0---2---4---2---2---0---2---0---0-----------------|
A|-2-------3---2---3---2---2---0-------3-------2-----------------|
E|-3-----------3-----------0-------------------3-----------------|

Interlude:
   C9 Dsus
e|-3---3---------------------------------------------------------|
B|-3---3---------------------------------------------------------|
G|-0---2---------------------------------------------------------|
D|-2---0---------------------------------------------------------|
A|-3-------------------------------------------------------------|
E|---------------------------------------------------------------|

Verse

Chorus:
   Eb  F   Bb  Eb  F   G   C9  D   Bm  Em  Am  D   E
e|-6---1---1---6---1---3---3---2---2---0---0---2---0-------------|
B|-6---1---1---6---1---3---3---3---3---0---1---3---0-------------|
G|-8---2---3---8---2---0---0---2---4---0---2---2---1-------------|
D|-8---3---3---8---3---0---2---0---4---2---2---0---2-------------|
A|-6---3---1---6---3---2---3-------2---2---0-------2-------------|
E|-----1-----------1---3---------------0-----------0-------------|

Verse

Outro:
   C9  Bm  Em  Am  C9 Dsus G
e|-3---2---0---0---3---3---3-------------------------------------|
B|-3---3---0---1---3---3---3-------------------------------------|
G|-0---4---0---2---0---2---0-------------------------------------|
D|-2---4---2---2---2---0---0-------------------------------------|
A|-3---2---2---0---3-------2-------------------------------------|
E|---------0---------------3-------------------------------------|

| /  slide up
| \  slide down
| h  hammer-on
| p  pull-off
| ~  vibrato
| +  harmonic
| x  Mute note

Click HERE To Download PDF

3 comments:

Anonymous said...

Hi Graham and Daniel,thank you so much for helping me to learn worship songs through your blogsite. May our Lord Jesus continue to bless and sustain you. By the way, I like the way you presented the lyrics in "Give me Words to Speak", it's very detailed. Please consider to make guitar videos for the songs: Humble King by Brenton Brown and Hideaway by Brett Williams. Please tell also your mom that she is so bless to have you as her sons. God bless you bro!

Bryan (singapore) said...

i love your commentary about the song and how it relates to scripture. i mean i've sung this song for years, but have never thought about it in the context of 1 cor. thanks for sharing. may u always use your gifts for His great purposes.

gaboelnuevo said...

Hola exelente blog, tocas muy bien la guitarra felicidades :)