Monday, March 23, 2009

Lucky

Lucky featuring Colbie CaillatA popular tune by Jason Mraz, featuring Colibie Caillat, which has been playing on the radio quite frequently. Jason recently performed in Singapore, and I heard from my eldest brother that it was spectacular. He really is a genius musician! Performed by Daniel and Clara (the duo who sang Way Back Into Love). Enjoy the music!





-----------------------------------------------------------------
LUCKY – Jason Mraz
-----------------------------------------------------------------
Tabbed by: Graham Choo
Email: da_tweens@yahoo.co.uk

Tuning: Standard
Verse 1:
   C   Am  Dm  G  D/F# Em  Am  Dm  G
e|---------------------------------------------------------------|
B|---------3x------------------3x--------------------------------|
G|-0x--2x--2x----------1x--2x--2x--------------------------------|
D|-2x--2x--0x--0x--0x--2x--2x--0x--0x----------------------------|
A|-3x--0x------2x--0x--2x--0x------2x----------------------------|
E|-------------3x--2x--0x----------3x----------------------------|

   C   Am  Dm  G  D/F# Em  Am  Dm  G          Gaug
e|-----------------------------1-------3-------------------------|
B|---------3x------------------3-------3-------3-----------------|
G|-0x--2x--2x----------1x--2x--2-------0-------4-----------------|
D|-2x--2x--0x--0x--0x--2x--2x--0---------------4-----------------|
A|-3x--0x------2x--0x--2x--0x------------------------------------|
E|-------------3x--2x--0x----------3-------4---------------------|

Chorus 1:
  Am7  Dm  G   C  C/B  Am  Dm  G
e|-0---1---3---0---0---0---1---3---------------------------------|
B|-1---3---3---1---1---1---3---3---------------------------------|
G|-0---2---0---0---0---2---2---0---------------------------------|
D|-2---0---0---2---0---2---0---0---------------------------------|
A|-0-------2---3---2---0-------2---------------------------------|
E|---------3-------------------3---------------------------------|

Interlude:
   C   Am  Em  G   Dm  Am  G   Dm  Am  G   Dm  Am  G  Am7 D/B
e|-0---0---0---3---1---0---3---1---0---3---1---0---3---0---0-----|
B|-1---1---0---3---3---1---3---3---1---3---3---1---3---1---3-----|
G|-0---2---0---0---2---2---0---2---2---0---2---2---0---0---0-----|
D|-2---2---2---0---0---2---0---0---2---0---0---2---0---2---0-----|
A|-3---0---2---2-------0---2-------0---2-------0---2---0---2-----|
E|---------0---3-----------3-----------3-----------3-------------|

Chorus 2:    
  Am7  Dm  G   C  C/B  Am  Dm  G  Gaug
e|-0---1---3---0---0---0---1---3---0-----------------------------|
B|-1---3---3---1---1---1---3---3---3-----------------------------|
G|-0---2---0---0---0---2---2---0---4-----------------------------|
D|-2---0---0---2---0---2---0---0---4-----------------------------|
A|-0-------2---3---2---0-------2---0-----------------------------|
E|---------3-------------------3---4-----------------------------|

Chorus 1

Verse 2:  
   C   Am  Dm  G   E   Am  Dm  G          Gaug
e|-------------------------1-------3-----------------------------|
B|---------3x--------------3-------3-------3---------------------|
G|-0x--2x--2x----------2x--2-------0-------4---------------------|
D|-2x--2x--0x--0x--2x--2x--0---------------4---------------------|
A|-3x--0x------2x--2x--0x----------------------------------------|
E|-------------3x--0x----------3-------4-------------------------|

Verse 2

Chorus 2

Chorus 1

Outro:
   C   Am  Em  G   C   Am  Em  G   C
e|-0---0---0---3---0---0---0---3---0-----------------------------|
B|-1---1---0---3---1---1---0---3---1-----------------------------|
G|-0---2---0---0---0---2---0---0---0-----------------------------|
D|-2---2---2---0---2---2---2---0---2-----------------------------|
A|-3---0---2---2---3---0---2---2---3-----------------------------|
E|---------0---3-----------0---3---------------------------------| 

| /  slide up
| \  slide down
| h  hammer-on
| p  pull-off
| ~  vibrato
| +  harmonic
| x  Mute note

Click HERE To Download PDF

13 comments:

Aaron said...

Hey very nice, i like this song, can't wait for the instructional.Nice duet,she has a sweet voice. I hope u work on "I'm Yours" by the same artist too.

Wilston Trin said...

That's the best cover i ever heard so far!! It was awesome! Keep up the good work!

Paul - Clean Cut Media said...

this cover is wonderful. Both of you are amazing. Just wanted to let you know of my appreciation for the music you put up on your blog. Keep it up.

Anonymous said...

i'm so glad you put this up! can you make an instructional video for this song?

Alex said...

God you guys are amazing.

Anonymous said...

Clara has an amazing voice! I appreciate your music guys. I've listened to this about 800 times in the past 24 hours. Clara your voice is sooooo attractive and you're pretty.

Alex said...

Clara, Marry Me.

Anonymous said...

great job brother !

crazyferjesus said...

hello :D awesome! I love the singing and the guitaring.. ROCK ON! (:

chai the blogger said...

hey,, i love your tutorials.. thanks for posting your tabs.. they are really great..

Joey said...

Hey!
I agree with Aaron. i really hope for a cover on "I'm yours"

kalĂȘ said...

oh, this is just perfect! love it! thank you so much. more power to you, god bless! :)

Karina said...

AWW this is such a lovely cover... you both sing very well. I am not sure I am good enough to try to guitar tabs but I will work my best towards it!