Friday, March 27, 2009

Second Chance

A worship song by Hillsong. The lyrics speak of salvation that Jesus has brought us, and our response by trusting entirely in Him. Paul speaks of one such response to salvation in 2 Timothy 1:8-10, and that is to suffer for the Gospel, by the power of God.

God has saved and called us to a holy life not because of our own merits, but purely because of His purpose and grace, given through Jesus Christ and His substitutionary death for us. So then the Gospel takes centrality in our response to salvation - to be unashamed of it, to suffer for it, to trust in Him who has saved our souls (2 Timothy 1:12). So we wait upon You now, dedicated to Your will.







-----------------------------------------------------------------
SECOND CHANCE – Hillsong
-----------------------------------------------------------------
Tabbed by: Graham Choo
Email: da_tweens@yahoo.co.uk

Tuning: Standard (Capo 2nd Fret)
Intro:
   A       A
e|-------0-------0-----------------------------------------------|
B|-------0-------0-----------------------------------------------|
G|-----2-2-----2-2-----------------------------------------------|
D|---2-------2---------------------------------------------------|
A|-0-------0-----------------------------------------------------|
E|---------------------------------------------------------------|

Verse 1:
   A       A       D       D       Bm      Bm      E         E
e|-------0-------0-------0-------0-------2-------2-------0---0---|
B|-------0-------0-----3-3-----3-3-------3-------3-------0---0---|
G|-----2-2-----2-2---2-------2---------4-4-----4-4-------1---1---|
D|---2-------2-----0-------0---------4-------4---------2-2---2---|
A|-0-------0-----------------------2-------2---------2-------2---|
E|-------------------------------------------------0---------0---|

Verse 2:
   A   D   Bm  E
e|-0---0---2---0-------------------------------------------------|
B|-0---3---3---0-------------------------------------------------|
G|-2---2---4---1-------------------------------------------------|
D|-2---0---4---2-------------------------------------------------|
A|-0-------2---2-------------------------------------------------|
E|-------------0-------------------------------------------------|

Chorus:
   A   E  F#m  D   A   E  F#m  D
e|-0---0---0---0---0---0---0---0---------------------------------|
B|-0---0---0---3---0---0---0---3---------------------------------|
G|-2---1---2---2---2---1---2---2---------------------------------|
D|-2---2---4---0---2---2---4---0---------------------------------|
A|-0---2---4-------0---2---4-------------------------------------|
E|-----0---------------0-----------------------------------------|

Verse 2

Chorus 2x

Interlude:
   Bm  E
e|-2---0---------------------------------------------------------|
B|-2---0---------------------------------------------------------|
G|-3---1---------------------------------------------------------|
D|-4---2---------------------------------------------------------|
A|-4---2---------------------------------------------------------|
E|-2---0---------------------------------------------------------|

Bridge:
   A   E  F#m  D   A   E  F#m  D
e|-0---0---0---0---0---0---0---0---------------------------------|
B|-0---0---0---3---0---0---0---3---------------------------------|
G|-2---1---2---2---2---1---2---2---------------------------------|
D|-2---2---4---0---2---2---4---0---------------------------------|
A|-0---2---4-------0---2---4-------------------------------------|
E|-----0---------------0-----------------------------------------|

Chorus 2x

Outro:
   A
e|-0-------------------------------------------------------------|
B|-0-------------------------------------------------------------|
G|-2-------------------------------------------------------------|
D|-2-------------------------------------------------------------|
A|-0-------------------------------------------------------------|
E|---------------------------------------------------------------|

| /  slide up
| \  slide down
| h  hammer-on
| p  pull-off
| ~  vibrato
| +  harmonic
| x  Mute note

Click HERE To Download PDF

3 comments:

Anonymous said...

Brother! Keep up the Good work! Thanks for Being a Blessing in Giving these free lessons and Tabs! I just Got an Acoustic-Electric Guitar for my birthday, will be here in a week, and Will be playing at my Church! God Bless!!! :) Josh

jimmej said...

I have always played this song in capo 4. G shapes, nice and easy

Iago said...

Hello friends of the blog I am Brazilian I know the blog shortly. What fine job of Daniel. I guarantee that is helping many to praise the Lord with their classes. Thank you very much. Sings very well and plays guitar too. rs; A big hug Me add no msn iagonovinho@hotmail.com. Ha I used an online translator to write this, so if you are using rolled up or weird not call not hug .. kkk