Friday, June 5, 2009

Jesus Messiah

Jesus MessiahA worship song by Chris Tomlin. In 2 Corinthians 5:18-21, Paul tells the church in Corinth to be reconciled to God, because He has reconciled us through Christ, not counting our sins against us, but against Christ who has become our righteousness.

Indeed Christ is the Messiah, the Anointed One whose coming and whose death and resurrection have been foretold by the prophets of old. And He who knew no sin, was made the sin offering for us, so that we would be made righteous before God. It is this realisation of our sinfulness and Christ's righteousness that makes God's love all the more amazing. Our hope is in You alone, our righteousness!





-----------------------------------------------------------------
JESUS MESSIAH – Chris Tomlin
-----------------------------------------------------------------
Tabbed by: Graham Choo
Email: da_tweens@yahoo.co.uk

Tuning: Standard (Capo 1st Fret)
Verse:
   G  Am7 G/B  C9  G  Am7 G/B  C9 G/B  C9
e|-3---3---3---3---3---3---3---3---3---3-------------------------|
B|-3---1---3---3---3---1---3---3---3---3-------------------------|
G|-0---0---0---0---0---0---0---0---0---0-------------------------|
D|-0---2---0---2---0---2---0---2---0---2-------------------------|
A|-2---0---2---3---2---0---2---3---2---3-------------------------|
E|-3---------------3---------------------------------------------|

Chorus:
   G   C9 G/B Dsus D   G   C9 G/B Dsus G
e|-3---3---3---3---2---3---3---3---3---3-------------------------|
B|-3---3---3---3---3---3---3---3---3---3-------------------------|
G|-0---0---0---2---2---0---0---0---2---0-------------------------|
D|-0---2---0---0---0---0---2---0---0---0-------------------------|
A|-2---3---2-----------2---3---2-------2-------------------------|
E|-3-------------------3---------------3-------------------------|

Verse

Chorus

Bridge:
  Am7 G/B C9 Dsus Am7 G/B  C9 Dsus D
e|-3---3---3---3---3---3---3---3---2-----------------------------|
B|-1---3---3---3---1---3---3---3---3-----------------------------|
G|-0---0---0---2---0---0---0---2---2-----------------------------|
D|-2---0---2---0---2---0---2---0---0-----------------------------|
A|-0---2---3-------0---2---3-------------------------------------|
E|---------------------------------------------------------------|

Chorus

| /  slide up
| \  slide down
| h  hammer-on
| p  pull-off
| ~  vibrato
| +  harmonic
| x  Mute note

Click HERE To Download PDF

3 comments:

Anonymous said...

Amazing! Godbless you sir.

Douglas said...

I think it is great that you are helping us worship leaders of limited talent to play better; I help lead worship in a small rual town and do my best. thank you for making our worship experiance better - PLEASE KEEP ADDING MORE!!!

Thanks

Doug

Anonymous said...

Daniel! I cannot wait to meet you in heaven!!! I just got a guitar a few months ago and decided to go on youtube for some help . . .you are SO helpful(to say the least). I thank God for you Daniel! And I love Hillsong so I also praise God that you help me play Hillsong Songs.