Friday, August 7, 2009

As It Is In Heaven

As It Is In HeavenA worship song by Matt Maher. The lyrics follow the Lord's prayer found in Matthew 6:9-13. In the passage, Jesus teaches His disciples about how we should pray - with a humble spirit, and manner that is not proud (Matthew 6:7).

But instead, we should pray prayers that:
- Glorify God (Matthew 6:9)
- Desire His will and purposes to be done (Matthew 6:10)
- Shows our total dependence on His sustenance and grace (Matthew 6:11)
- Acknowledges and repents from our sins (Matthew 6:12)
- Trusts in His sovereignty over evil, and deliverance from it (Matthew 6:13)

Indeed may our prayers reflect such things, and may they bring glory to our Father who is in heaven.





-----------------------------------------------------------------
AS IT IS IN HEAVEN – Matt Maher
-----------------------------------------------------------------
Tabbed by: Graham Choo
Email: da_tweens@yahoo.co.uk

Tuning: Standard
Intro:
   G   D   Em  C9  G   D   Em  C9
e|-3---2---3---3---3---2---3---3---------------------------------|
B|-3---3---3---3---3---3---3---3---------------------------------|
G|-0---2---0---0---0---2---0---0---------------------------------|
D|-0---0---2---2---0---0---2---2---------------------------------|
A|-2-------2---3---2-------2---3---------------------------------|
E|-3-------0-------3-------0-------------------------------------| 
OR
e|-----3-------3-2h3-----3-------3-2h3---------------------------|
B|---3---3---3---------3---3---3---------------------------------|
G|-0-------0---------0-------0-----------------------------------|
D|---------------------------------------------------------------|
A|---------------------------------------------------------------|
E|---------------------------------------------------------------|

e|-----3-------3-2h3-----3-------3-2h3---------------------------|
B|---3---3---3---------3---3---3---------------------------------|
G|-0-------0---------0-------0-----------------------------------|
D|---------------------------------------------------------------|
A|---------------------------------------------------------------|
E|---------------------------------------------------------------|

e|-----3-------3-2h3-----3-------3-2h3---------------------------|
B|---3---3---3---------3---3---3---------------------------------|
G|-0-------0---------0-------0-----------------------------------|
D|---------------------------------------------------------------|
A|---------------------------------------------------------------|
E|---------------------------------------------------------------|

e|-----3-------3-2h3-----3-------3-2h3---------------------------|
B|---3---3---3---------3---3---3---------------------------------|
G|-0-------0---------0-------0-----------------------------------|
D|---------------------------------------------------------------|
A|---------------------------------------------------------------|
E|---------------------------------------------------------------|

Verse 1:
   G   C9  Em  D   C9 D/C  C9  G   C9  Em  D   C9 D/C  C9
e|-3---3---3---2---3---2---3---3---3---3---2---3---2---3---------|
B|-3---3---3---3---3---3---3---3---3---3---3---3---3---3---------|
G|-0---0---0---2---0---0---0---0---0---0---2---0---0---0---------|
D|-0---2---2---0---2---0---2---0---2---2---0---2---0---2---------|
A|-2---3---2-------3---3---3---2---3---2-------3---3---3---------|
E|-3-------0-------------------3-------0-------------------------| 
OR
   G  D/G      C9                  Em D/E  D  Dsus C9
e|-3---2-0-----0-------0-----0-----3---2---2---3---0-------0-----|
B|-3---3---3---3-3-------3-----3---3---3---3---3---3-3-------3---|
G|-0---0-----0-0---0-------0-----0-0---0---2---2---0---0-------0-|
D|-0---0-------2-----2-------------2---0---0---0---2-----2-------|
A|-2---0-------3-------------------2---2-----------3-------------|
E|-3---3---------------------------0---0-------------------------|

   G   C9  Em Dsus C9
e|---------------------------------------------------------------|
B|-------------3x------------------------------------------------|
G|-----0x------2x--0x--------------------------------------------|
D|-0x--2x--2x--0x--2x--------------------------------------------|
A|-2x--3x--2x------3x--------------------------------------------|
E|-3x------0x----------------------------------------------------|

Pre-Chorus:
   C9 A/C# Em  D   C9
e|-3---0---3---2---3---------------------------------------------|
B|-3---0---3---3---3---------------------------------------------|
G|-0---2---0---2---0---------------------------------------------|
D|-2---2---2---0---2---------------------------------------------|
A|-3---4---2-------3---------------------------------------------|
E|---------0-----------------------------------------------------| 
OR
   C9      A7      Em Dsus C9
e|-0-0-------0-----3---3---0-------------------------------------|
B|-3---3---2---2---3---3---3-------------------------------------|
G|-0-----0-0-----0-0---2---0-------------------------------------|
D|-2-------2-------2---0---2-------------------------------------|
A|-3-------0-------2-------3-------------------------------------|
E|-----------------0---------------------------------------------|

Chorus:
   G  Dsus Em  C9  G  Dsus Em  C9
e|-3---3---3---3---3---3---3---3---------------------------------|
B|-3---3---3---3---3---3---3---3---------------------------------|
G|-0---2---0---0---0---2---0---0---------------------------------|
D|-0---0---2---2---0---0---2---2---------------------------------|
A|-2-------2---3---2-------2---3---------------------------------|
E|-3-------0-------3-------0-------------------------------------| 
OR
e|-----10-----10-----10-----10-----10-----10-----10-----10-------|
B|-7h8-8—-7h8-8--7h8-8--7h8-8--7h8-8--7h8-8--7h8-8--7h8-8--------|
G|-7---7--7---7--7---7--7---7--7---7--7---7--7---7--7---7--------|
D|---------------------------------------------------------------|
A|---------------------------------------------------------------|
E|---------------------------------------------------------------|

e|-----10-----10-----10-----10-----10-----10-----10-----10-------|
B|-7h8-8—-7h8-8--7h8-8--7h8-8--7h8-8--7h8-8--7h8-8--7h8-8--------|
G|-7---7--7---7--7---7--7---7--7---7--7---7--7---7--7---7--------|
D|---------------------------------------------------------------|
A|---------------------------------------------------------------|
E|---------------------------------------------------------------|

Interlude:
   G   D   Em  C9
e|-3---2---3---3-------------------------------------------------|
B|-3---3---3---3-------------------------------------------------|
G|-0---2---0---0-------------------------------------------------|
D|-0---0---2---2-------------------------------------------------|
A|-2-------2---3-------------------------------------------------|
E|-3-------0-----------------------------------------------------| 
OR
   G             D             Em            C9
e|---3-----3-------2-----2-------3-----3-----------0-------------|
B|-----3-----3---3---3-----3-------3-----3-----3-----3-----------|
G|-0-----0-----0-2-----2-----2-0-----0-----0-0---0-----0---------|
D|-0-------------0-------------2-------------2-------------------|
A|-2---------------------------2-------------3-------------------|
E|-3---------------------------0---------------------------------|

Verse 2:
   G   C9  Em  D   C9 D/C  C9  G   C9  Em  D   C9 D/C  C9
e|-3---3---3---2---3---2---3---3---3---3---2---3---2---3---------|
B|-3---3---3---3---3---3---3---3---3---3---3---3---3---3---------|
G|-0---0---0---2---0---0---0---0---0---0---2---0---0---0---------|
D|-0---2---2---0---2---0---2---0---2---2---0---2---0---2---------|
A|-2---3---2-------3---3---3---2---3---2-------3---3---3---------|
E|-3-------0-------------------3-------0-------------------------| 
OR
   G  D/G  G   C9 D/C  C9  Em Dsus C9
e|-3---2---3---3---2---3---3---3---3-0-----2-----3---------------|
B|-3---3---3---3---3---3---3---3---3---3-----3-----3-------------|
G|-0---0---0---0---0---0---0---2---0-----0-----0-----0-----------|
D|-0---0---0---2---0---2---2---0---2-----------------------------|
A|-2---0---2---3---3---3---2-------3-----------------------------|
E|-3---3---3---------------0-------------------------------------|

   G   C9  Em Dsus C9
e|---------------------------------------------------------------|
B|-------------3x------------------------------------------------|
G|-----0x------2x--0x--------------------------------------------|
D|-0x--2x--2x--0x--2x--------------------------------------------|
A|-2x--3x--2x------3x--------------------------------------------|
E|-3x------0x----------------------------------------------------|

Pre-Chorus

Chorus 4x

Outro: 
   G   D   Em  C9  G   D   Em  C9 D/C  C9  G
e|-3---2---3---3---3---2---3---3---2---3---3---------------------|
B|-3---3---3---3---3---3---3---3---3---3---3---------------------|
G|-0---2---0---0---0---2---0---0---0---0---0---------------------|
D|-0---0---2---2---0---0---2---2---0---2---0---------------------|
A|-2-------2---3---2-------2---3---3---3---2---------------------|
E|-3-------0-------3-------0---------------3---------------------| 
OR
e|-----3-------3-2h3-----3-------3-2h3---------------------------|
B|---3---3---3---------3---3---3---------------------------------|
G|-0-------0---------0-------0-----------------------------------|
D|---------------------------------------------------------------|
A|---------------------------------------------------------------|
E|---------------------------------------------------------------|

e|-----3-------3-2h3-----3-------3-2h3---------------------------|
B|---3---3---3---------3---3---3---------------------------------|
G|-0-------0---------0-------0-----------------------------------|
D|---------------------------------------------------------------|
A|---------------------------------------------------------------|
E|---------------------------------------------------------------|

e|-----3-------3-2h3-----3-------3-2h3---------------------------|
B|---3---3---3---------3---3---3---------------------------------|
G|-0-------0---------0-------0-----------------------------------|
D|---------------------------------------------------------------|
A|---------------------------------------------------------------|
E|---------------------------------------------------------------| 

   C9                        G
e|-----3-------3-2h3---------0-----2-----3-----3-----------------|
B|---3---3---3-----------3-----3---3-3---3-3---3-----------------|
G|-0-------0-----------0---0-----0-0---0-0---0-0-----------------|
D|-------------------2-------------------------0-----------------|
A|-------------------3-------------------------2-----------------|
E|---------------------------------------------3-----------------|

| /  slide up
| \  slide down
| h  hammer-on
| p  pull-off
| ~  vibrato
| +  harmonic
| x  Mute note

Click HERE To Download PDF

1 comment:

one-winged soldier said...

:) Thanks so much.
I've been waiting for some matt maher. ok not exactly waiting
but it was a great surprise.
again thanks so much for all your hard work. and praise God!