Thursday, July 23, 2009

My Everything

A worship song written and performed by my twin brother, Daniel Choo. In Colossians 1:15-20, Paul writes about who Jesus Christ is, and what is His relation to His creation. This is the supremacy of Christ - He is God (v.15, 19), the Creator and the reason for creation (v.16), the Sustainer of the world (v. 17), the head of the church (v.18), the Saviour and our sacrifice in order to reconcile man to God (v.20).

Indeed Jesus is our everything and nothing less. He is to be glorified as supreme over all - creation was made for Him. So in everything that we do, let us remember who Christ is and how we should respond to him, as creation responding in awe and reverence to their Creator, as redeemed slaves responding in obedience and full dependency to their Master.





-----------------------------------------------------------------
MY EVERYTHING – Daniel Choo
-----------------------------------------------------------------
Tabbed by: Graham Choo
Email: da_tweens@yahoo.co.uk

Tuning: Standard (Capo 2nd Fret)

Intro:
   G  Am7  C9 Dsus D
e|-3---3---3---3---2---------------------------------------------|
B|-3---1---3---3---3---------------------------------------------|
G|-0---0---0---2---2---------------------------------------------|
D|-0---2---2---0---0---------------------------------------------|
A|-2---0---3-----------------------------------------------------|
E|-3-------------------------------------------------------------|

Verse:
   G  Am7  C9 Dsus D   G  Am7  C9 Dsus D
e|-3---3---3---3---2---3---3---3---3---2-------------------------|
B|-3---1---3---3---3---3---1---3---3---3-------------------------|
G|-0---0---0---2---2---0---0---0---2---2-------------------------|
D|-0---2---2---0---0---0---2---2---0---0-------------------------|
A|-2---0---3-----------2---0---3---------------------------------|
E|-3-------------------3-----------------------------------------|

Verse

Chorus:
   G   Em Am7  Cm  G   Em Am7  Cm
e|-3---3---3---3---3---0---3---3---------------------------------|
B|-3---3---1---4---3---0---1---4---------------------------------|
G|-0---0---0---5---0---0---0---5---------------------------------|
D|-0---2---2---5---0---2---2---5---------------------------------|
A|-2---2---0---3---2---2---0---3---------------------------------|
E|-3---0-----------3---0-----------------------------------------|

Verse

Chorus

Bridge:
   Em  Bm  C9 Dsus Em  Bm  C9  Cm
e|-3---2---3---3---3---2---3---3---------------------------------|
B|-3---3---3---3---3---3---3---4---------------------------------|
G|-0---4---0---2---0---4---0---5---------------------------------|
D|-2---4---2---0---2---4---2---5---------------------------------|
A|-2---2---3-------2---2---3---3---------------------------------|
E|-0---------------0---------------------------------------------|

Chorus

Outro:
   G   Em Am7 Dsus D   G   Em Am7  Cm
e|-3---3---3---3---2---3---3---3---3-----------------------------|
B|-3---3---1---3---3---3---3---1---4-----------------------------|
G|-0---0---0---2---2---0---0---0---5-----------------------------|
D|-0---2---2---0---0---0---2---2---5-----------------------------|
A|-2---2---0-----------2---2---0---3-----------------------------|
E|-3---0---------------3---0-------------------------------------|

   G   Em Am7 Dsus D   G   Em Am7  Cm  G   C9  G
e|-3---3---3---3---2---3---3---3---3---3---3---3-----------------|
B|-3---3---1---3---3---3---3---1---4---3---3---3-----------------|
G|-0---0---0---2---2---0---0---0---5---0---0---0-----------------|
D|-0---2---2---0---0---0---2---2---5---0---2---0-----------------|
A|-2---2---0-----------2---2---0---3---2---3---2-----------------|
E|-3---0---------------3---0-----------3-------3-----------------|

| /  slide up
| \  slide down
| h  hammer-on
| p  pull-off
| ~  vibrato
| +  harmonic
| x  Mute note


Click HERE To Download PDF

2 comments:

Ken said...

Thanks so much for this song. It's great, lovely song of expressing praise. And It's in a key I can play in! lol

Jeanne said...

Hey Dan,
it's been long that i ain't visit your blog again! You're such a blessed man, am telling you! plus all this song was put on your site on the day of y bday, oh God!! this is a very nice song! dan keep blessed
Jeanne