Saturday, November 14, 2009

With All I Am

With All I AmA worship song by Hillsong. It speaks about how we are to devote and entrust our lives entirely to God - to commit, believe, belong, live, sing, walk, trust, and worship Him with all that we are.

Mark 12:29-30 speaks of Christ's response to a teacher of the law's question on which is the greatest commandment. And Jesus summed it up by saying that our God is one, and that we must love Him with our whole being. Let us understand that God is to be loved with all that we are, and Christ affirms it as well in His response to the teacher of the law's answer and understanding in Mark 12:34.





-----------------------------------------------------------------
WITH ALL I AM – Hillsong
-----------------------------------------------------------------
Tabbed by: Graham Choo
Email: da_tweens@yahoo.co.uk

Tuning: Standard
Intro:
   Bm F#m  G   Bm F#m  G  Asus A7
e|-2---2---3---2---2---3---0---0---------------------------------|
B|-3---2---3---3---2---3---3---2---------------------------------|
G|-4---2---0---4---2---0---2---0---------------------------------|
D|-4---4---0---4---4---0---2---2---------------------------------|
A|-2---4---2---2---4---2---0---0---------------------------------|
E|-----2---3-------2---3-----------------------------------------|

Verse:
   D  D/C# Bm Asus G  Asus D  D/C# Bm Asus G  Asus
e|-2---0---2---0---3---0---2---0---2---0---3---0-----------------|
B|-3---0---3---3---3---3---3---0---3---3---3---3-----------------|
G|-2---2---4---2---0---2---2---2---4---2---0---2-----------------|
D|-0---0---4---2---0---2---0---0---4---2---0---2-----------------|
A|-----4---2---0---2---0-------4---2---0---2---0-----------------|
E|-----------------3-----------------------3---------------------|

Interlude 1:
   Em Asus
e|-3---0---------------------------------------------------------|
B|-3---3---------------------------------------------------------|
G|-0---2---------------------------------------------------------|
D|-2---2---------------------------------------------------------|
A|-2---0---------------------------------------------------------|
E|-0-------------------------------------------------------------|

Chorus 1:
   D  D/C# Bm F#m  G   Em Asus  
e|-2---0---2---2---3---3---0-------------------------------------|
B|-3---0---3---2---3---3---3-------------------------------------|
G|-2---2---4---2---0---0---2-------------------------------------|
D|-0---0---4---4---0---2---2-------------------------------------|
A|-----4---2---4---2---2---0-------------------------------------|
E|-------------2---3---0-----------------------------------------|

Interlude 2:
   D  Asus
e|-0---0---------------------------------------------------------|
B|-3---3---------------------------------------------------------|
G|-2---2---------------------------------------------------------|
D|-0---2---------------------------------------------------------|
A|-----0---------------------------------------------------------|
E|---------------------------------------------------------------|

Verse

Interlude 1

Chorus 1

Chorus 2:
   D  D/C# Bm F#m  G   Em Asus A7  D
e|-2---0---2---2---3---3---0---0---2-----------------------------|
B|-3---0---3---2---3---3---3---2---3-----------------------------|
G|-2---2---4---2---0---0---2---0---2-----------------------------|
D|-0---0---4---4---0---2---2---2---0-----------------------------|
A|-----4---2---4---2---2---0---0---------------------------------|
E|-------------2---3---0-----------------------------------------|

Interlude 3:
   Em Asus D   Em Asus
e|-3---0---2---3---0---------------------------------------------|
B|-3---3---3---3---3---------------------------------------------|
G|-0---2---2---0---2---------------------------------------------|
D|-2---2---0---2---2---------------------------------------------|
A|-2---0-------2---0---------------------------------------------|
E|-0-----------0-------------------------------------------------|

Bridge:
   D  Dsus D   Em Asus A7  D  Dsus D   Em Asus A7
e|-2---3---2---3---0---0---2---3---2---3---0---0-----------------|
B|-3---3---3---3---3---2---3---3---3---3---3---2-----------------|
G|-2---2---2---0---2---0---2---2---2---0---2---0-----------------|
D|-0---0---0---2---2---2---0---0---0---2---2---2-----------------|
A|-------------2---0---0---------------2---0---0-----------------|
E|-------------0-----------------------0-------------------------|

   D  D/C# Bm Asus D  D/C# Bm Asus A7
e|-2---0---2---0---2---0---2---0---0-----------------------------|
B|-3---0---3---3---3---0---3---3---2-----------------------------|
G|-2---2---4---2---2---2---4---2---0-----------------------------|
D|-0---0---4---2---0---0---4---2---2-----------------------------|
A|-----4---2---0-------4---2---0---0-----------------------------|
E|---------------------------------------------------------------|

Chorus 1

Chorus 2

Outro:
  Dsus D
e|-3---2---------------------------------------------------------|
B|-3---3---------------------------------------------------------|
G|-2---2---------------------------------------------------------|
D|-0---0---------------------------------------------------------|
A|---------------------------------------------------------------|
E|---------------------------------------------------------------|

| /  slide up
| \  slide down
| h  hammer-on
| p  pull-off
| ~  vibrato
| +  harmonic
| x  Mute note

Click HERE To Download PDF

6 comments:

Greg said...

Thank you very much...how blessed we are to have such a great teacher like you.

lito said...

thank you very much..you are a great teacher.. i'm learning from you..

keep it up for the Glory of God..

btw, i am looking for the lyrics & chords for this song here and cannot find...

thanks... God bless.

Graham Choo said...

Hey lito,
I will be putting the Lyrics and Chords for the song soon. Have been going through the Christian songs alphabetically, and I'm up to "W" already. So it'll be up soon :)

Anonymous said...

Dear Daniel

God bless you for the amazing work that your are doing! You are an excellent teacher and its a pleasure to learn from you. Because of your instructionals all this beatiful songs of hope and faith will resound in many places around the world!

That's bringing the light in the darkness!

Thank you
Antoine

Dan said...

Thank you so much. I started not knowing how to play guitar at all and over the last few months with your videos, I have been able to play worship songs for my small group!

Your videos and tabs are great teaching resources and exactly what I was looking for. Praise god for your work here. It has been a very empowering and inspirational experience for me.

Sofia said...

Hi! Very good site and very good job. I would like to have instructions for christian songs in spanish but made for you :)