Saturday, November 7, 2009

Sing To The Lord

Sing To The LordA worship song by Hillsong. In Revelation 7:9-12, John gives us a description of his vision of heaven, where God is worshipped by the elect, the angels, the elders, and the four living creatures. Indeed when Christ comes again, all creation will worship Him because salvation is His, and He is worthy of praise!

But while we are on this earth eagerly awaiting His return, we are called to worship Him as well (Psalm 95). In fact, our worshipping God is the one thing that we will be doing now and for all eternity. Let us never cease to praise Him in song, and worship Him through our lives!





-----------------------------------------------------------------
SING TO THE LORD – Hillsong
-----------------------------------------------------------------
Tabbed by: Graham Choo
Email: da_tweens@yahoo.co.uk

Tuning: Standard
Intro:
   Em  D   C9  Em  D   C9
e|-3---2---3---3---2---3-----------------------------------------|
B|-3---3---3---3---3---3-----------------------------------------|
G|-0---2---0---0---2---0-----------------------------------------|
D|-2---0---2---2---0---2-----------------------------------------|
A|-2-------3---2-------3-----------------------------------------|
E|-0-----------0-------------------------------------------------|

Verse 1:
   G   D   Am  C9  G   D   Am  C9
e|-3---2---0---3---3---2---0---3---------------------------------|
B|-3---3---1---3---3---3---1---3---------------------------------|
G|-0---2---2---0---0---2---2---0---------------------------------|
D|-0---0---2---2---0---0---2---2---------------------------------|
A|-2-------0---3---2-------0---3---------------------------------|
E|-3---------------3---------------------------------------------|

Pre-Chorus:
   C9  G   Em  D   C9  D
e|-3---3---3---2---3---2-----------------------------------------|
B|-3---3---3---3---3---3-----------------------------------------|
G|-0---0---0---2---0---2-----------------------------------------|
D|-2---0---2---0---2---0-----------------------------------------|
A|-3---2---2-------3---------------------------------------------|
E|-----3---0-----------------------------------------------------|

Chorus:
   G   C9  Em  D   Em  C9  G   D   Am  G   D   Am  C9  Em  D
e|-3---3---3---2---3---3---3---2---0---3---2---0---3---3---2-----|
B|-3---3---3---3---3---3---3---3---1---3---3---1---3---3---3-----|
G|-0---0---0---2---0---0---0---2---2---0---2---2---0---0---2-----|
D|-0---2---2---0---2---2---0---0---2---0---0---2---2---2---0-----|
A|-2---3---2-------2---3---2-------0---2-------0---3---2---------|
E|-3-------0-------0-------3-----------3---------------0---------|

Interlude:
   Em  D   C9
e|-3---2---3-----------------------------------------------------|
B|-3---3---3-----------------------------------------------------|
G|-0---2---0-----------------------------------------------------|
D|-2---0---2-----------------------------------------------------|
A|-2-------3-----------------------------------------------------|
E|-0-------------------------------------------------------------|

Verse 1

Pre-Chorus

Chorus

Bridge:
   G  G/B  C9  Em  D  G/B  C9  G  G/B  C9  Em  D  G/B  C9
e|-3---3---3---3---2---3---3---3---3---3---3---2---3---3---------|
B|-3---3---3---3---3---3---3---3---3---3---3---3---3---3---------|
G|-0---2---0---0---2---2---0---0---2---0---0---2---2---0---------|
D|-0---0---2---2---0---0---2---0---0---2---2---0---0---2---------|
A|-2---2---3---2-------2---3---2---2---3---2-------2---3---------|
E|-3-----------0---------------3-----------0---------------------|

Verse 2:
   G   D   Am  C9
e|-3---2---0---3-------------------------------------------------|
B|-3---3---1---3-------------------------------------------------|
G|-0---2---2---0-------------------------------------------------|
D|-0---0---2---2-------------------------------------------------|
A|-2-------0---3-------------------------------------------------|
E|-3-------------------------------------------------------------|

Chorus

Outro:
   Em  D   C9  Em  D   C9  G
e|-3---2---3---3---2---3---3-------------------------------------|
B|-3---3---3---3---3---3---3-------------------------------------|
G|-0---2---0---0---2---0---0-------------------------------------|
D|-2---0---2---2---0---2---0-------------------------------------|
A|-2-------3---2-------3---2-------------------------------------|
E|-0-----------0-----------3-------------------------------------|

| /  slide up
| \  slide down
| h  hammer-on
| p  pull-off
| ~  vibrato
| +  harmonic
| x  Mute note

Click HERE To Download PDF

4 comments:

David said...

I'm happy that you are engaged in this calling you have chosen to answer. Worshipping and helping others worship and understand God as well. I am really touched everytime I see or even people praise cause I know and believe that I am not alone with my journey to God. Right now, I really wish I knew what is my calling. I lost everything I felt to truly understand and here God. I am lost since the time my passion for all of the unseen things faded even though my desire is still here for worship and through the Word. I don't know what to do anymore, all i want is to be with God in this eternity. =(

Graham Choo said...

Hey David, can I encourage you with Jeremiah 29:13 which says, "You will seek me and find me when you seek me with all your heart."
These were the words God spoke through Jeremiah to the exiles in Jerusalem.
Seek God earnestly, and He will be found. Pray for His Holy Spirit to renew your passion for Him once again, to set our minds on things above, not on earthly things (Colossians 3:2)

Carl said...

Thank you for your teaching on how to play worship songs .They have help with my bass playing in our worship band at first bapitist church in westego ,louisiana.

Drew Seymour said...

Hey I just wanna say this is absolutely amazing what your doing! I'm just starting and I wanna give God the glory and grow closer to him and I wanted to let you know your videos are helping me learn and helping me grow in faith! Just wanna say thank you for all you do even though you may not know what your doing! But it's cool how when we're in heaven we'll see all that we have done and how we affected people! Ha may not meet you on earth but will in heaven! God bless