Monday, April 5, 2010

Glory In The Highest

Glory In The HighestA Christian contemporary song by Chris Tomlin. In Isaiah 42:10-12, we read of a song of praise to the Lord, for His Servant will bring justice to the nations (Isaiah 42:1) and redeem them from their captivity (Isaiah 4:6-7). And this Servant foretold about is Jesus Christ. Indeed we should give glory to God and proclaim His praises in the islands (Isaiah 42:12).

As we remember Good Friday and Easter that has just passed, let us declare to God, "Glory in the highest!" for Jesus was the fulfillment of the prophecy in Isaiah, and has come to "release from the dungeon those who sit in darkness" (v.7). He died that we may live, taking the penalty of our sin upon Himself. He lives that we may have hope in a living God who will come again in glory. Glory in the highest!





-----------------------------------------------------------------
GLORY IN THE HIGHEST – Chris Tomlin
-----------------------------------------------------------------
Tabbed by: Graham Choo
Email: da_tweens@yahoo.co.uk

Tuning: Standard (Capo 2nd Fret)
Intro:
   C9  D   Em  D   C9  D  Dsus
e|-3---2---3---2---3---2---3-------------------------------------|
B|-3---3---3---3---3---3---3-------------------------------------|
G|-0---2---0---2---0---2---2-------------------------------------|
D|-2---0---2---0---2---0---0-------------------------------------|
A|-3-------2-------3---------------------------------------------|
E|---------0-----------------------------------------------------|

Verse:
   G  D/F# Em  C9  G  D/F# Em  C9
e|-3---3---3---3---3---3---3---3---------------------------------|
B|-3---3---3---3---3---3---3---3---------------------------------|
G|-0---2---0---0---0---2---0---0---------------------------------|
D|-0---0---2---2---0---0---2---2---------------------------------|
A|-2---0---2---3---2---0---2---3---------------------------------|
E|-3---2---0-------3---2---0-------------------------------------|

Chorus:
   C9  D   Em  D  Am7 G/B  C9
e|-3---2---3---2---3---3---3-------------------------------------|
B|-3---3---3---3---1---3---3-------------------------------------|
G|-0---2---0---2---0---0---0-------------------------------------|
D|-2---0---2---0---2---0---2-------------------------------------|
A|-3-------2-------0---2---3-------------------------------------|
E|---------0-----------------------------------------------------|

Verse

Chorus

Interlude:
   D   Em  C9  D   Em  C9
e|-2---3---3---2---3---3-----------------------------------------|
B|-3---3---3---3---3---3-----------------------------------------|
G|-2---0---0---2---0---0-----------------------------------------|
D|-0---2---2---0---2---2-----------------------------------------|
A|-----2---3-------2---3-----------------------------------------|
E|-----0-----------0---------------------------------------------|

Bridge:
   G   C9  G   C9  G   C9  G   C9 G/B  C9 G/B  C9 G/B  C9  G   C9
e|-3---3---3---3---3---3---3---3---3---3---3---3---3---3---3---3-|
B|-3---3---3---3---3---3---3---3---3---0---3---3---3---3---3---3-|
G|-0---0---0---0---0---0---0---0---0---0---0---0---0---0---0---0-|
D|-0---2---0---2---0---2---0---2---0---2---0---2---0---2---0---2-|
A|-2---3---2---3---2---3---2---3---2---3---2---3---2---3---2---3-|
E|-3-------3-------3-------3-------------------------------3-----|

   G   C9 G/B  C9  G   C9  G   C9
e|-3---3---3---3---3---3---3---3---------------------------------|
B|-3---3---3---3---3---3---3---3---------------------------------|
G|-0---0---0---0---0---0---0---0---------------------------------|
D|-0---2---0---2---0---2---0---2---------------------------------|
A|-2---3---2---3---2---3---2---3---------------------------------|
E|-3---------------3-------3-------------------------------------|

Outro:
   G   C9  G   C9  G
e|-3---3---3---3---3---------------------------------------------|
B|-3---3---3---3---3---------------------------------------------|
G|-0---0---0---0---0---------------------------------------------|
D|-0---2---0---2---0---------------------------------------------|
A|-2---3---2---3---2---------------------------------------------|
E|-3-------3-------3---------------------------------------------|

| /  slide up
| \  slide down
| h  hammer-on
| p  pull-off
| ~  vibrato
| +  harmonic
| x  Mute note

Click HERE To Download PDF

1 comment:

Matt said...

Great work on this, i'm trying to learn it an appreciate the effort to teach. God Bless!