Sunday, March 28, 2010

Thank You Lord

A worship song composed by Dan Burgess. In Romans 7:18-25, Paul writes a discourse about struggling with sin. He starts with the premise that we are sinful beings, and that nothing good live in us (v.18). There is a war waging within our souls - a war between us wanting to do good, and the evil we keep doing (v.19). It seems that we are hopeless prisoners to this law of sin working within us (v.23). But thanks be to God for rescuing us from this body of death through Jesus Christ (v.24-25)!

Indeed when we face trials, our human nature tends towards responding in an ungodly way - to curse God and die (Job 2:9), so to speak. However, we have been justified through Christ (Romans 5:1)! Our response should be to rely on the Holy Spirit to rejoice in our sufferings, for it produces perseverance, character, and a hope that does not disappoint (Romans 5:3). We thank you Lord!





-----------------------------------------------------------------
THANK YOU LORD – Dan Burgess
-----------------------------------------------------------------
Tabbed by: Graham Choo
Email: da_tweens@yahoo.co.uk

Tuning: Standard
Intro:
   G   G7
e|-3---1---------------------------------------------------------|
B|-3---0---------------------------------------------------------|
G|-0---0---------------------------------------------------------|
D|-0---0---------------------------------------------------------|
A|-2---2---------------------------------------------------------|
E|-3---3---------------------------------------------------------|

Verse 1:
   C   D   Bm  Em Am7  D   G   G7  C   D   Bm  Em Am7  D   G   G7
e|-0---2---2---0---0---0---3---1---0---2---2---0---0---0---3---1-|
B|-1---3---3---0---1---3---3---0---1---3---3---0---1---3---3---0-|
G|-0---2---4---0---0---2---0---0---0---2---4---0---0---2---0---0-|
D|-2---4---4---2---2---0---0---0---2---4---4---2---2---0---0---0-|
A|-3---5---2---2---0-------2---2---3---5---2---2---0-------2---2-|
E|-------------0-----------3---3---------------0-----------3---3-|

Chorus:
   C   D   Bm  Em Am7  D   G   G7  C   D   Bm  Em Am7  D   G   G7
e|-0---2---2---0---0---0---3---1---0---2---2---0---0---0---3---1-|
B|-1---3---3---0---1---3---3---0---1---3---3---0---1---3---3---0-|
G|-0---2---4---0---0---2---0---0---0---2---4---0---0---2---0---0-|
D|-2---4---4---2---2---0---0---0---2---4---4---2---2---0---0---0-|
A|-3---5---2---2---0-------2---2---3---5---2---2---0-------2---2-|
E|-------------0-----------3---3---------------0-----------3---3-|

Verse 1

Chorus

Verse 2:
   C   D   Bm  Em Am7  D   G   G7
e|-0---2---2---0---0---0---3---1---------------------------------|
B|-1---3---3---0---1---3---3---0---------------------------------|
G|-0---2---4---0---0---2---0---0---------------------------------|
D|-2---4---4---2---2---0---0---0---------------------------------|
A|-3---5---2---2---0-------2---2---------------------------------|
E|-------------0-----------3---3---------------------------------|

Outro:
   C   D   Bm  Em Am7  D   G   C9  G
e|-0---2---2---0---0---0---3---3---3-----------------------------|
B|-1---3---3---0---1---3---3---3---3-----------------------------|
G|-0---2---4---0---0---2---0---0---0-----------------------------|
D|-2---4---4---2---2---0---0---2---0-----------------------------|
A|-3---5---2---2---0-------2---3---2-----------------------------|
E|-------------0-----------3-------3-----------------------------|

| /  slide up
| \  slide down
| h  hammer-on
| p  pull-off
| ~  vibrato
| +  harmonic
| x  Mute note

Click HERE To Download PDF

3 comments:

Natasia Chandra said...

I really love this song..! I've been searching for the chords and now I find.. Thanks :D

Trish Tupas said...

Thank you so much for the chords.. I really want to play this song on my guitar.. I'm so inspired.. God bless us all.. =)

List said...

thank you sir