Monday, June 7, 2010

He Will Carry You

He Will Carry You (Brown)A worship song by Scott Wesley Brown. In Isaiah 46, we read of God who denounces the gods of Bablyon, comforts His people who are captive, and promises them salvation from their captors. He reminds them that He is their Sustainer who has been upholding them since their births through their old age. And this is the beautiful thing - He will sustain, carry, and rescue them, for He is their Creator. (Isaiah 46:3-4).

Israel was God's chosen nation in the Old Testament, and He has revealed that His salvation plan was not just for Israel but the Gentiles as well (Isaiah 49:6). He is our Creator, and He will save us - and He has done so through Jesus, who carried the weight of the word (sin) upon Himself. So come to Jesus, for the weary and burdened who do so will find rest (Matthew 11:28).





-----------------------------------------------------------------
HE WILL CARRY YOU – Scott Wesley Brown
-----------------------------------------------------------------
Tabbed by: Graham Choo
Email: da_tweens@yahoo.co.uk

Tuning: Standard (Capo 2nd Fret)
Intro:
   G
e|-3-------------------------------------------------------------|
B|-3-------------------------------------------------------------|
G|-0-------------------------------------------------------------|
D|-0-------------------------------------------------------------|
A|-2-------------------------------------------------------------|
E|-3-------------------------------------------------------------| 
Verse:
   G   Bm  Am  D   Am  D   G   D   G   Bm  Am  D   Am  D   G   D
e|-3---2---0---2---0---2---3---2---3---2---0---2---0---2---3---2-|
B|-3---3---1---3---1---3---3---3---3---3---1---3---1---3---3---3-|
G|-0---4---2---2---2---2---0---2---0---4---2---2---2---2---0---2-|
D|-0---4---2---0---2---0---0---0---0---4---2---0---2---0---0---0-|
A|-2---2---0-------0-------2-------2---2---0-------0-------2-----|
E|-3-----------------------3-------3-----------------------3-----|
Chorus:
   G   Bm  Am  D   Am  D   G   D   G   Bm  Am  D   Am  D   G
e|-3---2---0---2---0---2---3---2---3---2---0---2---0---2---3-----|
B|-3---3---1---3---1---3---3---3---3---3---1---3---1---3---3-----|
G|-0---4---2---2---2---2---0---2---0---4---2---2---2---2---0-----|
D|-0---4---2---0---2---0---0---0---0---4---2---0---2---0---0-----|
A|-2---2---0-------0-------2-------2---2---0-------0-------2-----|
E|-3-----------------------3-------3-----------------------3-----| 
Verse
Chorus 
Bridge:
   Em  Bm  D   A   C   D   G
e|-3---2---2---0---3---2---3-------------------------------------|
B|-3---3---3---2---1---3---3-------------------------------------|
G|-0---4---2---2---0---2---0-------------------------------------|
D|-2---4---0---2---2---0---0-------------------------------------|
A|-2---2-------0---3-------2-------------------------------------|
E|-0-----------------------3-------------------------------------|
Chorus
Outro:
   C9  G
e|-3---3---------------------------------------------------------|
B|-3---3---------------------------------------------------------|
G|-0---0---------------------------------------------------------|
D|-2---0---------------------------------------------------------|
A|-3---2---------------------------------------------------------|
E|-----3---------------------------------------------------------|
| /  slide up
| \  slide down
| h  hammer-on
| p  pull-off
| ~  vibrato
| +  harmonic
| x  Mute note

Click HERE To Download PDF

1 comment:

dz1sfb said...

Thank you for posting this. I am subscribed to your brothers YouTube channel as well. He has a very nice voice and his instructions are simple to understand and without complex chords.