Thursday, April 14, 2011

Lord I Want To Know You More

Oh, I Want To Know You More (The Letter Album Version)A worship song by Steve Green. In Philippians 3:7-11, Paul writes of his conviction to the church in Philippi, telling them of the surpassing worth of knowing Christ. He knew that all his achievements and status was as nothing before the prospect of knowing Christ - that we have a righteousness that is not our own but comes from God through faith in Christ; that in His death and resurrection, we suffer but attain eternal life.

In the same way, can we echo Paul's conviction of wanting to know Christ? Knowing Christ is knowing God. And knowing God in an intimate relationship is the greatest blessing that we can have - It was how the perfect creation was meant to be in the garden of Eden - God's people, under God's rule, enjoying God's blessings. Let us aim to know Christ in His death and resurrection, counting all other things as loss. Lord, I want to know you more!





----------------------------------------------------------------------
LORD I WANT TO KNOW YOU MORE – Steve Green
----------------------------------------------------------------------
Tabbed by: Graham Choo
Email: da_tweens@yahoo.co.uk

Tuning: Standard
Intro:
   G  D/F# C9  Em  D   C9  C9 C/B Am7 Dsus D
e|-3---3---3---3---2---3---3---3---3---3---2---------------------|
B|-3---3---3---3---3---3---3---3---1---3---3---------------------|
G|-0---2---0---0---2---0---0---0---0---2---2---------------------|
D|-0---0---2---2---0---2---2---0---2---0---0---------------------|
A|-2---0---3---2-------3---3---2---0-----------------------------|
E|-3---2-------0-------------------------------------------------|
Verse 1:
   G  D/F# Em  D   C9 C/B Am7 D/F# D   C9 C/B Am7  G   C9  D
e|-3---3---3---2---3---3---3---3---2---3---3---3---3---3---2-----|
B|-3---3---3---3---3---3---1---3---3---3---3---1---3---3---3-----|
G|-0---2---0---2---0---0---0---2---2---0---0---0---0---0---2-----|
D|-0---0---2---0---2---0---2---0---0---2---0---2---0---2---0-----|
A|-2---0---2-------3---2---0---0-------3---2---0---2---3---------|
E|-3---2---0-------------------2-------------------3-------------|
   G  D/F# Em  D   C9 C/B Am7 D/F# D   C9 C/B Am7 Dsus D    
e|-3---3---3---2---3---3---3---3---2---3---3---3---3---2---------|
B|-3---3---3---3---3---3---1---3---3---3---3---1---3---3---------|
G|-0---2---0---2---0---0---0---2---2---0---0---0---2---2---------|
D|-0---0---2---0---2---0---2---0---0---2---0---2---0---0---------|
A|-2---0---2-------3---2---0---0-------3---2---0-----------------|
E|-3---2---0-------------------2---------------------------------|
Chorus 1:
   G  D/F# Em  D   C9 C/B Am7  D
e|-3---3---3---2---3---3---3---2---------------------------------|
B|-3---3---3---3---3---3---1---3---------------------------------|
G|-0---2---0---2---0---0---0---2---------------------------------|
D|-0---0---2---0---2---0---2---0---------------------------------|
A|-2---0---2-------3---2---0-------------------------------------|
E|-3---2---0-----------------------------------------------------|
   G  D/F# Em  D   C9 C/B Am7  B7  Em Asus A  Am7  D
e|-3---3---3---2---3---3---3---2---3---0---0---0---2-------------|
B|-3---3---3---3---3---3---1---0---3---3---2---1---3-------------|
G|-0---2---0---2---0---0---0---2---0---2---2---0---2-------------|
D|-0---0---2---0---2---0---2---1---2---2---2---2---0-------------|
A|-2---0---2-------3---2---0---2---2---0---0---0-----------------|
E|-3---2---0-----------------------0-----------------------------|
Interlude:
   G  D/F# C9
e|-3---3---3-----------------------------------------------------|
B|-3---3---3-----------------------------------------------------|
G|-0---2---0-----------------------------------------------------|
D|-0---0---2-----------------------------------------------------|
A|-2---0---3-----------------------------------------------------|
E|-3---2---------------------------------------------------------|
Verse 2:
   G  D/F# Em  D   C9 C/B Am7 D/F# Em  D   C9 C/B Am7  G   C9  D
e|-3---3---3---2---3---3---3---3---3---2---3---3---3---3---3---2-|
B|-3---3---3---3---3---3---1---3---3---3---3---3---1---3---3---3-|
G|-0---2---0---2---0---0---0---2---0---2---0---0---0---0---0---2-|
D|-0---0---2---0---2---0---2---0---2---0---2---0---2---0---2---0-|
A|-2---0---2-------3---2---0---0---2-------3---2---0---2---3-----|
E|-3---2---0-------------------2---0-------------------3---------|
   G  D/F# Em  D   C9 C/B Am7 D/F# Em  D   C9 C/B Am7  D        
e|-3---3---3---2---3---3---3---3---3---2---3---3---3---2---------|
B|-3---3---3---3---3---3---1---3---3---3---3---3---1---3---------|
G|-0---2---0---2---0---0---0---2---0---2---0---0---0---2---------|
D|-0---0---2---0---2---0---2---0---2---0---2---0---2---0---------|
A|-2---0---2-------3---2---0---0---2-------3---2---0-------------|
E|-3---2---0-------------------2---0-----------------------------|
Chorus 1
Chorus 2:
   G  D/F# Em  D   C9 C/B Am7  B7  Em Asus A  Am7  B7  Em  D   C9
e|-3---3---3---2---3---3---3---2---3---0---0---0---2---3---2---3-|
B|-3---3---3---3---3---3---1---0---3---3---2---1---0---3---3---3-|
G|-0---2---0---2---0---0---0---2---0---2---2---0---2---0---2---0-|
D|-0---0---2---0---2---0---2---1---2---2---2---2---1---2---0---2-|
A|-2---0---2-------3---2---0---2---2---0---0---0---2---2-------3-|
E|-3---2---0-----------------------0-------------------0---------|
   C9 C/B Am7  D
e|-3---3---3---2-------------------------------------------------|
B|-3---3---1---3-------------------------------------------------|
G|-0---0---0---2-------------------------------------------------|
D|-2---0---2---0-------------------------------------------------|
A|-3---2---0-----------------------------------------------------|
E|---------------------------------------------------------------|
Outro:
   G  D/F# C9  G
e|-3---3---3---3-------------------------------------------------|
B|-3---3---3---3-------------------------------------------------|
G|-0---2---0---0-------------------------------------------------|
D|-0---0---2---0-------------------------------------------------|
A|-2---0---3---2-------------------------------------------------|
E|-3---2-------3-------------------------------------------------|
| /  slide up
| \  slide down
| h  hammer-on
| p  pull-off
| ~  vibrato
| +  harmonic
| x  Mute note 

Click HERE To Download PDF

5 comments:

Anonymous said...

Thanks for posting....

Anonymous said...

Thanks for posting...

Ronald Johann Santos said...

Thanks a lot. I love this song :)

John Bea said...

Dear Daniel Choo

Thank you brother. God Bless. Please write more song with guitar chords.


Blessing

JohnB

John Bea said...

Dear Daniel Choo

I am happy to learn " Lord I want to know you" Its a difficult piece. I finally found the chord from your blog. I am thankful for your sharing. God bless you!

John