Saturday, September 15, 2012

Compassion Hymn

Compassion HymnA Christian song by Keith & Kristyn Getty. The lyrics speak of our God of compassion who came down from heaven to save His people, who healed the sick, who forgave their sins through His death for them, and who gave them hope of salvation through the gospel of Christ.

Mark 6:34 recounts the feeding of the five thousand where Jesus saw a large crowd that had gathered and had compassion on them for they were like sheep without a shepherd. And He taught them many things and provided for their needs. This is our compassionate God who has not left us to our own devices which only lead to destruction, but has while we were still sinners, died for us and saved us to be His children. Thank You God for Your great compassion for us!





-----------------------------------------------------------------
COMPASSION HYMN – Keith & Kristyn Getty
-----------------------------------------------------------------
Tabbed by: Graham Choo
Email: da_tweens@yahoo.co.uk

Tuning: Standard
Intro:
   G D/F# Asus D
e|-3---0---0---2-------------------------------------------------|
B|-3---3---3---3-------------------------------------------------|
G|-0---2---2---2-------------------------------------------------|
D|-0---0---2---0-------------------------------------------------|
A|-2---0---0-----------------------------------------------------|
E|-3---2---------------------------------------------------------|
Verse 1:
   G  D/F# Em D/F# G D/F# D/B Asus G  D/F# Em D/F# G  D/F# Em
e|-3---0---3---0---3---0---0---0---3---0---3---0---3---0---3-----|
B|-3---3---3---3---3---3---3---3---3---3---3---3---3---3---3-----|
G|-0---2---0---2---0---2---2---2---0---2---0---2---0---2---0-----|
D|-0---0---2---0---0---0---0---2---0---0---2---0---0---0---2-----|
A|-2---0---2---0---2---0---2---0---2---0---2---0---2---0---2-----|
E|-3---2---0---2---3---2-----------3---2---0---2---3---2---0-----|
Intro
Verse 2:
   G  D/F# Em  D   G  D/F# Em Asus G  D/F# Em  D   G  D/F# Em  D
e|-3---0---3---2---3---0---3---0---3---0---3---2---3---0---3---2-|
B|-3---3---3---3---3---3---3---3---3---3---3---3---3---3---3---3-|
G|-0---2---0---2---0---2---0---2---0---2---0---2---0---2---0---2-|
D|-0---0---2---0---0---0---2---2---0---0---2---0---0---0---2---0-|
A|-2---0---2-------2---0---2---0---2---0---2-------2---0---2-----|
E|-3---2---0-------3---2---0-------3---2---0-------3---2---0-----|
Chorus:
  Asus G  D/F# G  Em D/F# Asus D  Asus G  D/F# G  Em D/F# Asus
e|-0---3---0---3---3---0---0---2---0---3---0---3---3---0---0-----|
B|-3---3---3---3---3---3---3---3---3---3---3---3---3---3---3-----|
G|-2---0---2---0---0---2---2---2---2---0---2---0---0---2---2-----|
D|-2---0---0---0---2---0---2---0---2---0---0---0---2---0---2-----|
A|-0---2---0---2---2---0---0-------0---2---0---2---2---0---0-----|
E|-----3---2---3---0---2---------------3---2---3---0---2---------|
Intro 2x
Verse 2
Chorus
Intro 2x
Verse 2
Chorus
Interlude:
   D
e|-2-------------------------------------------------------------|
B|-3-------------------------------------------------------------|
G|-2-------------------------------------------------------------|
D|-0-------------------------------------------------------------|
A|---------------------------------------------------------------|
E|---------------------------------------------------------------|
Chorus
Outro:
   G D/F# Asus D   G D/F# Asus D
e|-3---0---0---2---3---0---0---0---------------------------------|
B|-3---3---3---3---3---3---3---3---------------------------------|
G|-0---2---2---2---0---2---2---2---------------------------------|
D|-0---0---2---0---0---0---2---0---------------------------------|
A|-2---0---0-------2---0---0-------------------------------------|
E|-3---2-----------3---2-----------------------------------------|
| /  slide up
| \  slide down
| h  hammer-on
| p  pull-off
| ~  vibrato
| +  harmonic
| x  Mute note

Click HERE To Download PDF

2 comments:

ranjith kumar said...

Wow. Really nice music tabs.. I like it..

Anonymous said...

Bravo for the PDF. Exactly what I was looking for. I am sure it took a lot of time: thank you!