Saturday, September 8, 2012

To You

To YouA Christian song by Hillsong. The lyrics speak of us belonging to God and being included in His family, where all praise and worship goes to Him for all that He has done for us. In John 10:27-29, Jesus answers the Jews who question if He is the Messiah, telling them that His sheep know His voice and they follow Him. And those whom the Father has given Him, no one can snatch from His hand.

Thank You Jesus that we belong to Your family, and that You secure our place i Your family. We belong to You because the Father has given us to You, and we praise and worship You because You have given us eternal life through Your sacrifice for us.





-----------------------------------------------------------------
TO YOU – Hillsong
-----------------------------------------------------------------
Tabbed by: Graham Choo
Email: da_tweens@yahoo.co.uk

Tuning: Standard
Intro:
   G
e|-3-------------------------------------------------------------|
B|-3-------------------------------------------------------------|
G|-0-------------------------------------------------------------|
D|-0-------------------------------------------------------------|
A|-2-------------------------------------------------------------|
E|-3-------------------------------------------------------------|
Verse:
   G   C9 Dsus C9  G   C9 Dsus C9 Dsus
e|-3---3---3---3---3---3---3---3---3-----------------------------|
B|-3---3---3---3---3---3---3---3---3-----------------------------|
G|-0---0---2---0---0---0---2---0---2-----------------------------|
D|-0---2---0---2---0---2---0---2---0-----------------------------|
A|-2---3-------3---2---3-------3---------------------------------|
E|-3---------------3---------------------------------------------|
Chorus 1:
   G  Am7 Dsus G   C9  Em  F   D   G  Am7 Dsus G   C9  Em Dsus D
e|-3---3---3---3---3---3---1---2---3---3---3---3---3---3---3---2-|
B|-3---1---3---3---3---3---1---3---3---1---3---3---3---3---3---3-|
G|-0---0---2---0---0---0---2---2---0---0---2---0---0---0---2---2-|
D|-0---2---0---0---2---2---3---0---0---2---0---0---2---2---0---0-|
A|-2---0-------2---3---2---3-------2---0-------2---3---2---------|
E|-3-----------3-------0---1-------3-----------3-------0---------|
Interlude:
   C9  G
e|-3---3---------------------------------------------------------|
B|-3---3---------------------------------------------------------|
G|-0---0---------------------------------------------------------|
D|-2---0---------------------------------------------------------|
A|-3---2---------------------------------------------------------|
E|-----3---------------------------------------------------------|
Verse
Chorus 1
Chorus 2:
   G  Am7 Dsus G   C9  Em Dsus D
e|-3---3---3---3---3---3---3---2---------------------------------|
B|-3---1---3---3---3---3---3---3---------------------------------|
G|-0---0---2---0---0---0---2---2---------------------------------|
D|-0---2---0---0---2---2---0---0---------------------------------|
A|-2---0-------2---3---2-----------------------------------------|
E|-3-----------3-------0-----------------------------------------|
Outro:
   C9  G  C9 Cmaj7 G
e|-3---3---3---2---3---------------------------------------------|
B|-3---3---3---3---3---------------------------------------------|
G|-0---0---0---0---0---------------------------------------------|
D|-2---0---2---0---0---------------------------------------------|
A|-3---2---3---3---2---------------------------------------------|
E|-----3-----------3---------------------------------------------| 
| /  slide up
| \  slide down
| h  hammer-on
| p  pull-off
| ~  vibrato
| +  harmonic
| x  Mute note

Click HERE To Download PDF

2 comments:

Christine Ann Craig said...

Beautiful. Thanks for sharing! :)

Cary Byrd said...

Terrific blog it is. Thanks for video dear. Click here to enjoy more Christian Videos Online.