Saturday, September 1, 2012

Let Your Kingdom Come

Let Your Kingdom ComeA Christian song by Sovereign Grace Music. The lyrics speak of how we should pray for God's kingdom to come and His will to be done, that we may bring glory to His name. And we do this by allowing Him to use us to share His gospel with others, and to the ends of the earth.

In Matthew 6:9-13, Jesus teaches His disciples how to pray. And these words should echo our's as well in praising Him, advancing His gospel, depending wholly on Him for our daily needs and forgiveness, and in allowing Him to shape our lives to forgive and persevere.Let Your kingdom come, let Your will be done, so that everyone might know Your name!





------------------------------------------------------------------------
LET YOUR KINGDOM COME – Sovereign Grace Music
------------------------------------------------------------------------
Tabbed by: Graham Choo
Email: da_tweens@yahoo.co.uk

Tuning: Standard
Intro:
   G  Dsus Em  C9  G  Dsus Em  C9
e|-3---3---3---3---3---3---3---3---------------------------------|
B|-3---3---3---3---3---3---3---3---------------------------------|
G|-0---2---0---0---0---2---0---0---------------------------------|
D|-0---0---2---2---0---0---2---2---------------------------------|
A|-2-------2---3---2-------2---3---------------------------------|
E|-3-------0-------3-------0-------------------------------------|
Verse:
  Dsus C9  G  Dsus C9  Em Dsus C9 G/B  C9 Dsus C9  Bm  C9
e|-3---3---3---3---3---3---3---3---3---3---3---3---2---3---------|
B|-3---3---3---3---3---3---3---3---3---3---3---3---3---3---------|
G|-2---0---2---2---0---0---2---0---0---0---2---0---4---0---------|
D|-0---2---0---0---2---2---0---2---0---2---0---2---4---2---------|
A|-----3---2-------3---2-------3---2---3-------3---2---3---------|
E|---------3-----------0-----------------------------------------|
Chorus:
   G  Dsus Em  C9  G  Dsus Em  C9  G  Dsus Em  C9  Em Dsus C9
e|-3---3---3---3---3---3---3---3---3---3---3---3---3---3---3-----|
B|-3---3---3---3---3---3---3---3---3---3---3---3---3---3---3-----|
G|-0---2---0---0---0---2---0---0---0---2---0---0---0---2---0-----|
D|-0---0---2---2---0---0---2---2---0---0---2---2---2---0---2-----|
A|-2-------2---3---2-------2---3---2-------2---3---2-------3-----|
E|-3-------0-------3-------0-------3-------0-------0-------------|
Intro
Verse
Chorus 2x
Outro:
   G  Dsus Em  C9  G  Dsus Em  C9  G
e|-3---3---3---3---3---3---3---3---3-----------------------------|
B|-3---3---3---3---3---3---3---3---3-----------------------------|
G|-0---2---0---0---0---2---0---0---0-----------------------------|
D|-0---0---2---2---0---0---2---2---0-----------------------------|
A|-2-------2---3---2-------2---3---2-----------------------------|
E|-3-------0-------3-------0-------3-----------------------------|
| /  slide up
| \  slide down
| h  hammer-on
| p  pull-off
| ~  vibrato
| +  harmonic
| x  Mute note

Click HERE To Download PDF

1 comment:

chords tabs said...

I like this blog. Because in this blog provide the chords as well as provide guitar chords in PDF format.. Its very useful for me