Saturday, January 12, 2013

My Refuge

My RefugeA Christian song by Sonicflood. The lyrics speak of taking our refuge in God, who helps us in times of need, who has given us peace and hope through His perfect plan for us. Psalm 31:19-20 tells us that the Lord has stored up good things for those who take refuge in Him, and He shelters and keeps them safe.

Indeed God's perfect plan through Jesus Christ has given us peace with God, and hope of a perfect future where we will reign with Him in glory. And those who take refuge in Him will not be disappointed. Come and take refuge in Jesus, who has redeemed us and given us freedom through the cross. For He welcomes all who are weary and heavy-laden to find rest in Him (Matthew 11:28).





-----------------------------------------------------------------
MY REFUGE – Sonicflood
-----------------------------------------------------------------
Tabbed by: Graham Choo
Email: da_tweens@yahoo.co.uk

Tuning: Standard
Intro:
   E   Bm F#m  Am  E   Bm F#m  Am
e|-0---2---0---0---0---2---0---0--------------------------------------|
B|-0---3---0---1---0---3---0---1--------------------------------------|
G|-1---4---2---2---1---4---2---2--------------------------------------|
D|-2---4---4---2---2---4---4---2--------------------------------------|
A|-2---2---4---0---2---2---4---0--------------------------------------|
E|-0---------------0--------------------------------------------------| 
OR
e|--------------------------------------------------------------------|
B|--------------------------------------------------------------------|
G|-9-11p9-------------------------------11----9/11--------------------|
D|-9-------------------9~-7/9-7----9/11----11------9/10-10----9/12~---|
A|------------7h9-9/11----------9~-------------------------12---------|
E|--------7h9---------------------------------------------------------|
e|--------------------------------------------------------------------|
B|------------------------7~------------------------------------------|
G|----------------9-9\7-7-6~------------------------------------------|
D|--------------9-9-9\7-7-7~-----7h9-9/10-9p7-------------------------|
A|-----7h9-9/11--------------7h9--------------9p7---------------------|
E|-7h9----------------------------------------------------------------|
Verse 1:
   E   Bm F#m  Am  E   Bm F#m  Am Asus Am
e|-0---2---0---0---0---2---0---0---0---0------------------------------|
B|-0---3---0---1---0---3---0---1---3---1------------------------------|
G|-1---4---2---2---1---4---2---2---2---2------------------------------|
D|-2---4---4---2---2---4---4---2---2---2------------------------------|
A|-2---2---4---0---2---2---4---0---0---0------------------------------|
E|-0---------------0--------------------------------------------------| 
OR
   E       Bm     A/F#      Am      E       Bm      A/F#    Am Asus Am 
e|-------0-------0-------0--------0-------0-------0-------0-0---0---0-|
B|---0---0---3---3---0---0----1---1---0---0---3---3---0---0-1---3---1-|
G|-----1-1-4---4-4-----2-2--2---2-2-----1-1-4---4-4-----2-2-2---2---2-|
D|-4-------4-------2--------2-------4-------4-------2-------2---2---2-|
A|-2-------2-------x--------0-------2-------2-------x-------0---0---0-|
E|-0---------------2----------------0---------------2-----------------|
Chorus:
   C9  G   D  D/F# C9  G   D   Em  C9  G   D
e|-3---3---2---0---3---3---2---3---3---3---2--------------------------|
B|-3---3---3---3---3---3---3---3---3---3---3--------------------------|
G|-0---0---2---2---0---0---2---0---0---0---2--------------------------|
D|-2---0---0---0---2---0---0---2---2---0---0--------------------------|
A|-3---2-------0---3---2-------2---3---2------------------------------|
E|-----3-------2-------3-------0-------3------------------------------|
Interlude 1:
   E  F#m  Am
e|-0---0---0----------------------------------------------------------|
B|-0---0---1----------------------------------------------------------|
G|-1---2---2----------------------------------------------------------|
D|-2---4---2----------------------------------------------------------|
A|-2---4---0----------------------------------------------------------|
E|-0------------------------------------------------------------------| 
OR
e|-------------12/14-12---------12/14-12------------------------------|
B|----------------------12~-10~----------12~-10~----------------------|
G|-13\11-9-8-4--------------------------------------------------------|
D|-x--x--x-x-x--------------------------------------------------------|
A|-11\9--7-6-2--------------------------------------------------------|
E|--------------------------------------------------------------------|
Verse 2:
   E  F#m  Am  E  F#m  Am Asus Am
e|-0---0---0---0---0---0---0---0--------------------------------------|
B|-0---0---1---0---0---1---3---1--------------------------------------|
G|-1---2---2---1---2---2---2---2--------------------------------------|
D|-2---4---2---2---4---2---2---2--------------------------------------|
A|-2---4---0---2---4---0---0---0--------------------------------------|
E|-0-----------0------------------------------------------------------| 
OR
e|-------------12/14-12---------12/14-12------------------------------|
B|----------------------12~-10~----------12~-10~----------------------|
G|-13\11-9-8-4--------------------------------------------------------|
D|-x--x--x-x-x--------------------------------------------------------|
A|-11\9--7-6-2--------------------------------------------------------|
E|--------------------------------------------------------------------|
                                Am Asus Am
e|-------------12/14-12---------0---0---0-----------------------------|
B|----------------------12~-10~-1---3---1------~----------------------|
G|-13\11-9-8-4------------------2---2---2-----------------------------|
D|-x--x--x-x-x------------------2---2---2-----------------------------|
A|-11\9--7-6-2------------------0---0---0-----------------------------|
E|--------------------------------------------------------------------|
Chorus
Bridge:
   Em  C9  G  D/F# Em  C9  G   D   B7
e|-3---3---3---0---3---3---3---2---2----------------------------------|
B|-3---3---3---3---3---3---3---3---0----------------------------------|
G|-0---0---0---2---0---0---0---2---2----------------------------------|
D|-2---2---0---0---2---2---0---0---1----------------------------------|
A|-2---3---2---0---2---3---2-------2----------------------------------|
E|-0-------3---2---0-------3------------------------------------------| 
OR
   Em      C9      G      D/F# Em      C9      G     Dsus  B7
e|-3---2---3---2---3---2---0---3---2---3---2---3---2---2---2----------|
B|-3---3---3---3---3---3---3---3---3---3---3---3---3---2---0----------|
G|-0---0---0---0---0---0---2---0---0---0---0---0---0---3---2----------|
D|-2---0---2---0---0---0---0---2---0---2---0---0---0---0---1----------|
A|-2---2---3---3---2---x---0---2---2---3---3---2---x-------2----------|
E|-0---0-----------3---3---2---0---0-----------3---3------------------|
Chorus
Interlude 1:
   E  F#m  Am  E  F#m  D   C9  G   F
e|-0---0---0---0---0---2---3---3---1----------------------------------|
B|-0---0---1---0---0---3---3---3---1----------------------------------|
G|-1---2---2---1---2---2---0---0---2----------------------------------|
D|-2---4---2---2---4---0---2---0---3----------------------------------|
A|-2---4---0---2---4-------3---2---3----------------------------------|
E|-0-----------0---------------3---1----------------------------------| 
OR
e|-------------12/14-12---------12/14-12------------------------------|
B|----------------------12~-10~----------12~-10~----------------------|
G|-13\11-9-8-4--------------------------------------------------------|
D|-x--x--x-x-x--------------------------------------------------------|
A|-11\9--7-6-2--------------------------------------------------------|
E|--------------------------------------------------------------------|
e|-------------12/14-12-----------------------------------------------|
B|----------------------12~-10~---------------------------------------|
G|-13\11-9-8-4------------------7-5-----------------------------------|
D|-x--x--x-x-x------------------x-x-5-3-------------------------------|
A|-11\9--7-6-2------------------5-3-x-x-------------------------------|
E|----------------------------------3-1-------------------------------|
Outro:
   E  F#m  Am  E  F#m  Am  E  F#m  Am  E  F#m  D   C9  G   F   E
e|-0---0---0---0---0---0---0---0---0---0---0---2---3---3---1---0------|
B|-0---0---1---0---0---1---0---0---1---0---0---3---3---3---1---0------|
G|-1---2---2---1---2---2---1---2---2---1---2---2---0---0---2---1------|
D|-2---4---2---2---4---2---2---4---2---2---4---0---2---0---3---2------|
A|-2---4---0---2---4---0---2---4---0---2---4-------3---2---3---2------|
E|-0-----------0-----------0-----------0---------------3---1---0------| 
OR
e|-------------12/14-12---------12/14-12------------------------------|
B|----------------------12~-10~----------12~-10~----------------------|
G|-13\11-9-8-4--------------------------------------------------------|
D|-x--x--x-x-x--------------------------------------------------------|
A|-11\9--7-6-2--------------------------------------------------------|
E|--------------------------------------------------------------------|
e|-------------12/14-12---------12/14-12------------------------------|
B|----------------------12~-10~----------12~-10~----------------------|
G|-13\11-9-8-4--------------------------------------------------------|
D|-x--x--x-x-x--------------------------------------------------------|
A|-11\9--7-6-2--------------------------------------------------------|
E|--------------------------------------------------------------------|
e|-------------12/14-12---------12/14-12------------------------------|
B|----------------------12~-10~----------12~-10~----------------------|
G|-13\11-9-8-4--------------------------------------------------------|
D|-x--x--x-x-x--------------------------------------------------------|
A|-11\9--7-6-2--------------------------------------------------------|
E|--------------------------------------------------------------------| 
                                        E
e|-------------12/14-12-----------------0-----------------------------|
B|----------------------12~-10~---------0-----------------------------|
G|-13\11-9-8-4------------------7-5-----1-----------------------------|
D|-x--x--x-x-x------------------x-x-5-3-4-----------------------------|
A|-11\9--7-6-2------------------5-3-x-x-2-----------------------------|
E|----------------------------------3-1-0-----------------------------|
| /  slide up
| \  slide down
| h  hammer-on
| p  pull-off
| ~  vibrato
| +  harmonic
| x  Mute note

Click HERE To Download PDF

2 comments:

simon george said...

I appreciate the tabs. Stuff like this really helps players to keep learning. I think music is all about its endless possibilities. Great post keep up the hard work. Check these out IStillGotMyGuitar.

Edson said...

Man, All of your videos are great!
God bless You!
Keep on The Way!