Wednesday, May 16, 2007

I Could Sing Of Your Love Forever

I Could Sing Of Your Love ForeverAnother all time favourite worship song that everyone knows of. Sung by many bands and singers including Delirious, Sonicflood, Hillsong, and many more. It talks about how great the love of our God is, and the greatest love that he sent down to us - Jesus. We can indeed sing of His love forever.

The first video is the song itself. The second is the instructional. Tabs are below.





-----------------------------------------------------------------------
I COULD SING OF YOUR LOVE FOREVER – Delirious
-----------------------------------------------------------------------
Tabbed by: Graham Choo
Email: da_tweens@yahoo.co.uk

Tuning: Standard
Intro:
   E  F#m  A   B
e|-0---0---0---0-------------------------------------------------|
B|-0---0---0---0-------------------------------------------------|
G|-1---2---2---4-------------------------------------------------|
D|-2---4---2---4-------------------------------------------------|
A|-2---4---0---2-------------------------------------------------|
E|-0-------------------------------------------------------------| 
Verse:
   E  F#m  A   B   E  F#m  A   B
e|-0---0---0---0---0---0---0---0---------------------------------|
B|-0---0---0---0---0---0---0---0---------------------------------|
G|-1---2---2---4---1---2---2---4---------------------------------|
D|-2---4---2---4---2---4---2---4---------------------------------|
A|-2---4---0---2---2---4---0---2---------------------------------|
E|-0---------------0---------------------------------------------| 
Chorus:
   E  F#m  A   B   E  F#m  A   B
e|-0---0---0---0---0---0---0---0---------------------------------|
B|-0---0---0---0---0---0---0---0---------------------------------|
G|-1---2---2---4---1---2---2---4---------------------------------|
D|-2---4---2---4---2---4---2---4---------------------------------|
A|-2---4---0---2---2---4---0---2---------------------------------|
E|-0---------------0---------------------------------------------| 
Verse
Chorus
Bridge:
  F#m G#m  A   B  F#m G#m  A   B
e|-0---0---0---0---0---0---0---0---------------------------------|
B|-0---0---0---0---0---0---0---0---------------------------------|
G|-2---4---2---4---2---4---2---4---------------------------------|
D|-4---6---2---4---4---6---2---4---------------------------------|
A|-4---6---0---2---4---6---0---2---------------------------------|
E|---------------------------------------------------------------| 
Chorus
Verse
| /  slide up
| \  slide down
| h  hammer-on
| p  pull-off
| ~  vibrato
| +  harmonic
| x  Mute note

Click HERE To Download PDF

8 comments:

jose david said...

Gracias amigo!!!

jose david said...
This comment has been removed by the author.
Anonymous said...

Thanks for the tabs!! I think this is the 3rd song i've learned from you ^^
Thank you and plz dont stop =)

Zachary said...

Thank you so much for taking the time to make these tabs!! I'm learning the guitar, as well as learning how to be a praise and worship leader for you youth group, and these songs will help me immensely!
God bless you guys!!

Anonymous said...

hi

wanna say thank you for this tab..

i really like the song so much..


keep up and
God Bless..

Anonymous said...

hey, thank you soooo much for making these tabs!! they've really helped me a lot!! i really appriciate the time you took to do all this!

Anonymous said...

Thank you, Thank you, Thank you!!

Jun said...

Thank you for this awesome tutorial!!! :) don't stop making these tutorials and god bless!