Thursday, June 7, 2007

How Great Is Our God

How Great Is Our GodA worship song by Chris Tomlin, declaring the greatness of our God.





-----------------------------------------------------------------
HOW GREAT IS OUR GOD – Chris Tomlin
-----------------------------------------------------------------
Tabbed by: Graham Choo
Email: da_tweens@yahoo.co.uk

Tuning: Standard
Verse 1:
   A  F#m  E  Esus E   A  F#m  E  Esus E
e|-0---0---0---0---0---0---0---0---0---0-------------------------|
B|-0---0---0---0---0---0---0---0---0---0-------------------------|
G|-2---2---1---2---1---2---2---1---2---1-------------------------|
D|-2---4---2---2---2---2---4---2---2---2-------------------------|
A|-0---4---2---2---2---0---4---2---2---2-------------------------|
E|---------0---0---0-----------0---0---0-------------------------| 
Chorus:
   A  F#m  D   E   A   E
e|-0---0---0---0---0---0-----------------------------------------|
B|-0---0---3---0---0---0-----------------------------------------|
G|-2---2---2---1---2---1-----------------------------------------|
D|-2---4---0---2---2---2-----------------------------------------|
A|-0---4-------2---0---2-----------------------------------------|
E|-------------0-------0-----------------------------------------| 
Verse 2
Chorus
Bridge:
   A  F#m  D   E  Esus A   E  Esus
e|-0---0---0---0---0---0---0---0---------------------------------|
B|-0---0---3---0---0---0---0---0---------------------------------|
G|-2---2---2---1---2---2---1---2---------------------------------|
D|-2---4---0---2---2---2---2---2---------------------------------|
A|-0---4-------2---2---0---2---2---------------------------------|
E|-------------0---0-------0---0---------------------------------| 
Chorus
| /  slide up
| \  slide down
| h  hammer-on
| p  pull-off
| ~  vibrato
| +  harmonic
| x  Mute note

Click HERE To Download PDF

7 comments:

Anonymous said...

The instructional video you did on youtube is here: http://youtube.com/watch?v=bQnDtBnGXtc

God bless you brother =)
Al

DaveL said...

Daniel,

I lead worship at a Maximum Security Prison every week. I use your music arrangements as the source of the music I perform. Every time I participate in this ministry, you share in the fuit of my labor. I can't tell you how much I appreciate your awesome music arrangments!

rockalex said...

daniel,

thanks for the tabs... i´m a realy big NOOB (^^) in playing with a guitar...

but with your Tabs it is realy EASY ...

GOD BLESS

Ken said...

Thanks. You not only showed me how to play this song in another key, you taught me a non-barre way to play F#m.

Thanks a lot.

Ben said...

Hey thanks for the tabs. Worship really is a gift from God(:

Sim said...

Hey Daniel,

Really love the site and what you are doing. I was wondering if you could post the chords for the 2nd verse?

Many thanks and God Bless

Gabriel

Graham Choo said...

Hey Sim,

It's left blank in the PDF because it's the same chords as the first verse :)

Hope that helps!