Monday, June 11, 2007

We Fall Down

We Fall Down (One Day Live Album Version)A worship song by Christ Tomlin. Simple tune with simple lyrics, but yet really expresses our worshipful attitude towards a holy God.

The first video is the song itself. The second is the instructional. Tabs are below.





-----------------------------------------------------------------
WE FALL DOWN – Chris Tomlin
-----------------------------------------------------------------
Tabbed by: Graham Choo
Email: da_tweens@yahoo.co.uk

Tuning: Standard (Capo 1st Fret)
Intro:
   E  Esus E  Esus
e|-0---0---0---0-------------------------------------------------|
B|-0---0---0---0-------------------------------------------------|
G|-1---2---1---2-------------------------------------------------|
D|-2---2---2---2-------------------------------------------------|
A|-2---2---2---2-------------------------------------------------|
E|-0---0---0---0-------------------------------------------------| 
Verse 1:
   E   B  C#m  A  F#m  E   B  C#m  A  F#m
e|-0---0---4---0---0---0---0---4---0---0-------------------------|
B|-0---0---5---0---0---0---0---5---0---0-------------------------|
G|-1---4---6---2---2---1---4---6---2---2-------------------------|
D|-2---4---6---2---4---2---4---6---2---4-------------------------|
A|-2---2---4---0---4---2---2---4---0---4-------------------------|
E|-0-------------------0-----------------------------------------|
Chorus:
  G#m  A  G#m F#m G#m  A  G#m F#m G#m  A  G#m F#m  B   E
e|-0---0---0---0---0---0---0---0---0---0---0---0---0---0---------|
B|-0---0---0---0---0---0---0---0---0---0---0---0---0---0---------|
G|-4---6---4---2---4---6---4---2---4---6---4---2---4---1---------|
D|-6---7---6---4---6---7---6---4---6---7---6---4---4---2---------|
A|-6---7---6---4---6---7---6---4---6---7---6---4---2---2---------|
E|-----5---------------5---------------5---------------0---------| 
Intro
Verse 1
Chorus
Intro
| /  slide up
| \  slide down
| h  hammer-on
| p  pull-off
| ~  vibrato
| +  harmonic
| x  Mute note

Click HERE To Download PDF

4 comments:

Steve said...

Your instructionals have helped me with my worship guitar playing in ways that I cannot describe. Thank you so much!!!!!

Vani said...

Hi,
I am a new guitar student.
I really like this song and would like to play it very much.
However I am not sure of the strumming pattern for the chorus - We cry Holy, Holy, Holy.
I tried listening to the instructional video but I am not sure how you are strumming in the video.
Can you please kindly let me know how I should strum.
My email address is vani.04@gmail.com. thanx a lot

Graham Choo said...

Hey Vani, I will be posting up the lyrics and chords and strumming pattern for the song eventually. Am doing that for all the Christian songs on the blog. Am up to "P" now, so "W" is not too far off :)

apple in my hands said...

Thank you so much,
I really want to know how to play the song " We fall down" and other christian songs.

You are wonderful teacher!

Specially I was impressed the purpose of your goal and your teaching way.

God bless you and your work!!!