Wednesday, October 17, 2007

Power Of Your Love

A very familiar worship song by Hillsong that's been around for quite a while already. It speaks of how the knowledge and power of God's sacrificial and unconditional love should in effect, bring a mighty change in our lives. In Romans 12:1-2, Paul says, "Therefore, I urge you, brothers, in view of God's mercy, to offer your bodies as living sacrifices, holy and pleasing to God—this is your spiritual act of worship. Do not conform any longer to the pattern of this world, but be transformed by the renewing of your mind. Then you will be able to test and approve what God's will is—his good, pleasing and perfect will."

God's love for us should bring about a change in our lives. The power of His love manifested through Jesus' death on the cross which canceled our sin, and the sending of the promised helper - the Holy Spirit - to guide us into holy living, has given us every opportunity to be changed by the power of His love. Thank you God. Help us to rely on Your Spirit to ever renew our minds and live changed lives, apart from our old self, for Your glory.





-----------------------------------------------------------------
POWER OF YOUR LOVE – Hillsong
-----------------------------------------------------------------
Tabbed by: Graham Choo
Email: da_tweens@yahoo.co.uk

Tuning: Standard

Intro:
   G   C9  G   C9
e|-3---3---3---3-------------------------------------------------|
B|-3---3---3---3-------------------------------------------------|
G|-0---0---0---0-------------------------------------------------|
D|-0---2---0---2-------------------------------------------------|
A|-2---3---2---3-------------------------------------------------|
E|-3-------3-----------------------------------------------------| 
Verse 1:
   G  D/F# Em  Bm  Em  C9 Dsus Em  C9 Dsus
e|-3---3---3---2---3---3---3---3---3---3-------------------------|
B|-3---3---3---3---3---3---3---3---3---3-------------------------|
G|-0---2---0---4---0---0---2---0---0---2-------------------------|
D|-0---0---2---4---2---2---0---2---2---0-------------------------|
A|-2---0---2---2---2---3-------2---3-----------------------------|
E|-3---2---0-------0-----------0---------------------------------| 
   G  D/F# Em  Bm  Em  C9 Dsus G   G7
e|-3---3---3---2---3---3---3---3---1-----------------------------|
B|-3---3---3---3---3---3---3---3---0-----------------------------|
G|-0---2---0---4---0---0---2---0---0-----------------------------|
D|-0---0---2---4---2---2---0---0---0-----------------------------|
A|-2---0---2---2---2---3-------2---2-----------------------------|
E|-3---2---0-------0-----------3---3-----------------------------| 
Chorus:
   C9 Dsus C9 Dsus G   C9 Dsus G   G7
e|-3---3---3---3---3---3---3---3---1-----------------------------|
B|-3---3---3---3---3---3---3---3---0-----------------------------|
G|-0---2---0---2---0---0---2---0---0-----------------------------|
D|-2---0---2---0---0---2---0---0---0-----------------------------|
A|-3-------3-------2---3-------2---2-----------------------------|
E|-----------------3-----------3---3-----------------------------| 
   C9 Dsus C9 Dsus G  D/F# Em Dsus C9 Dsus G
e|-3---3---3---3---3---3---3---3---3---3---3---------------------|
B|-3---3---3---3---3---3---3---3---3---3---3---------------------|
G|-0---2---0---2---0---2---0---2---0---2---0---------------------|
D|-2---0---2---0---0---0---2---0---2---0---0---------------------|
A|-3-------3-------2---0---2-------3-------2---------------------|
E|-----------------3---2---0---------------3---------------------|
Interlude:
   C9 Dsus
e|-3---3---------------------------------------------------------|
B|-3---3---------------------------------------------------------|
G|-0---2---------------------------------------------------------|
D|-2---0---------------------------------------------------------|
A|-3-------------------------------------------------------------|
E|---------------------------------------------------------------| 
Verse 2
Chorus 2x
Outro:
   G  D/F# Em Dsus C9 Dsus C9 D/G  G
e|-3---3---3---3---3---3---3---2---3-----------------------------|
B|-3---3---3---3---3---3---3---3---3-----------------------------|
G|-0---2---0---2---0---2---0---0---0-----------------------------|
D|-0---0---2---0---2---0---2---0---0-----------------------------|
A|-2---0---2-------3-------3---0---2-----------------------------|
E|-3---2---0-------------------3---3-----------------------------| 
| /  slide up
| \  slide down
| h  hammer-on
| p  pull-off
| ~  vibrato
| +  harmonic
| x  Mute note

Click HERE To Download PDF

8 comments:

Anonymous said...

Revised lyrics of Power Of Your Love: http://www.signposts.org.au/2005/08/28/the-power-of-your-love/

Anonymous said...

Can you please put text to describe the exact strumming pattern you used to play the song?

Thanks. Bless.

Graham Choo said...

Hey, I'm currently working on all the Christian songs on the list. You can refer to the "Recently Added" section at the left-hand column under "Lyrics And Chords: ___" to see which one's have the new format including strumming patterns.

broken said...

hi there - 1st of all thank you so much for the tabs and instructions for the songs - they have been a great help - but there is another thing - i would like to know how u recorded ur guitar and singing - its beautiful

Graham Choo said...

Hey broken, for our older videos, we only used our Panasonic digital camera to record them. We then converted the videos into a format that takes up less space (usually .avi).
However, if you notice our newer videos, the sound quality is much better. That's because we've added a separate audio recorder (Zoom H4n Handy Recorder) to focus on the sound.

Jo said...

Hi Graham, thanks for providing this tab! I'm a beginnner guitar player and the strumming guide you provided really helped so much! I will be playing this song for CG tonight and I hope Jesus will use me as His instrument to touch lives. (:

Ebin Joseph said...

it was very nice . but i am stuck with chord . if u put chord diagram for difficult chords like D over F #. it been very usefull for us .

Graham Choo said...

Hey Ebin, that's the plan for our new website when it's up! In the meantime, the instructional videos and tabs can help :)