Friday, November 2, 2007

None But Jesus

None But JesusA worship song by Hillsong. Speaks about us choosing Christ daily, over the circumstances we may face. In John 14:6-7, Jesus says, "I am the way and the truth and the life. No one comes to the Father except through me. If you really knew me, you would know my Father as well. From now on, you do know him and have seen him."

Do we know Jesus well enough to know the Father? He restores us when we come into His presence. He reigns supreme in any situation we may face. He gives us strength to do His will when we are weak. Indeed, there is no one else for me, none but Jesus. Help us to experience you Lord, and to choose you daily, for you are the way the truth and the life.







-----------------------------------------------------------------
NONE BUT JESUS – Hillsong
-----------------------------------------------------------------
Tabbed by: Graham Choo
Email: da_tweens@yahoo.co.uk

Tuning: Standard (Capo 5th Fret)
Intro:
   G   C   G   C   G   C   G   C
e|---0-------0-------0-------0-----------------------------------|
B|-0-0-0---0-0-0---0-0-0---0-0-0---------------------------------|
G|-0-0-0---0-0-0---0-0-0---0-0-0---------------------------------|
D|-0---2---0---2---0---2---0---2---------------------------------|
A|-2---3---2---3---2---3---2---3---------------------------------|
E|-3-------3-------3-------3-------------------------------------| 
Verse 1:
   G   C  Am7  D   G   C9 Am7  D
e|---------0---0---3---3---3---0---------------------------------|
B|-0---0---1---3---3---3---1---3---------------------------------|
G|-0---0---0---2---0---0---0---2---------------------------------|
D|-0---2---2---0---0---2---2---0---------------------------------|
A|-2---3---0-------2---3---0-------------------------------------|
E|-3---------------3---------------------------------------------| 
Pre-Chorus:
  Am7 D/A  G   C9  D  Am7 D/A  G   C9  D
e|-3---0---3---3---2---3---0---3---3---0-------------------------|
B|-1---3---3---3---3---1---3---3---3---3-------------------------|
G|-0---0---0---0---2---0---0---0---0---2-------------------------|
D|-2---4---0---2---0---2---4---0---2---0-------------------------|
A|-0---0---2---3-------0---0---2---3-----------------------------|
E|---------3-------------------3---------------------------------| 
Chorus:
   Em  C   G   D  Am7  Em  C   G   D  Am7
e|-0---0---3---0---0---0---0---3---0---0-------------------------|
B|-0---1---3---3---1---0---1---3---3---1-------------------------|
G|-0---0---0---2---0---0---0---0---2---0-------------------------|
D|-2---2---0---0---2---2---2---0---0---2-------------------------|
A|-2---3---2-------0---2---3---2-------0-------------------------|
E|-0-------3-----------0-------3---------------------------------| 
Verse 2
Pre-Chorus
Chorus 2x
Interlude:
   Em  C   D   G  D/F# Em  C   D   G  D/F#
e|-0---0---0---3---3---0---0---0---3---3-------------------------|
B|-0---0---3---3---3---0---0---3---3---3-------------------------|
G|-0---0---2---0---2---0---0---2---0---2-------------------------|
D|-2---2---0---0---0---2---2---0---0---0-------------------------|
A|-2---3-------2---0---2---3-------2---0-------------------------|
E|-0-----------3---2---0-----------3---2-------------------------| 
Bridge:
   Em  C   G   D  Am7  Em  C   G   D  Am7  Em
e|-0---0---3---0---0---0---0---3---0---0---0---------------------|
B|-0---1---3---3---1---0---1---3---3---1---0---------------------|
G|-0---0---0---2---0---0---0---0---2---0---0---------------------|
D|-2---2---0---0---2---2---2---0---0---2---2---------------------|
A|-2---3---2-------0---2---3---2-------0---2---------------------|
E|-0-------3-----------0-------3-----------0---------------------| 
   C   G   D  Am7  Em  C   G   D  Am7 D/A Am7
e|-0---3---0---0---0---0---3---0---0---0---3---------------------|
B|-1---3---3---1---0---1---3---3---1---3---1---------------------|
G|-0---0---2---0---0---0---0---2---0---0---0---------------------|
D|-2---0---0---2---2---2---0---0---2---4---2---------------------|
A|-3---2-------0---2---3---2-------0---0---0---------------------|
E|-----3-----------0-------3-------------------------------------| 
Chorus 2x
Outro:
  Am7 D/A Am7 D/A  G
e|-0---0---0---0---3---------------------------------------------|
B|-1---3---1---3---3---------------------------------------------|
G|-0---0---0---0---0---------------------------------------------|
D|-2---4---2---4---0---------------------------------------------|
A|-0---0---0---0---2---------------------------------------------|
E|-----------------3---------------------------------------------| 
| /  slide up
| \  slide down
| h  hammer-on
| p  pull-off
| ~  vibrato
| +  harmonic
| x  Mute note

Click HERE To Download PDF

6 comments:

Anonymous said...

This is great! Thank you. May the Lord bless you for what you've done.

stkelsiej said...

That was outstanding. Thank you so much for doing all of this. stkel

Samuel Fuentes C. said...

Muchas gracias, estoy contento de haber encontrado tu blog.
Dios te bendiga y nuevamente, muchas gracias!!

Samuel
Chile
http://7samfc.blogspot.com

Anonymous said...

"thxxx sooo much tha's so great i call finally learn songs tha i adore with all my heart Daniel may the Lord of heaven give u all the blessings plzzz never stop there are so many ppl u are teaching nd u even can't imagine" plzz can anyone help me to know how to play f sharp for th interlude of none but jesus song i will be thankfull for tha

greetings from Burundi africa
la main de Dieu te protege et te benit

Graham Choo said...

Hey there,

The D/F# chord actually means playing a D chord with an F# bass. The instructional video at 5:16 teaches where to place the fingers to play the chord. Hope it helps!

Anonymous said...

it did thxxx so much my listening wasn't good enough now im good, it really does sound lik the original song it's amazing these videos can help beginners guitarists...


muuuch blessings from Lord