Monday, July 13, 2009

Wonderful Saviour

Wonderful SaviourA worship song originally written as a traditional hymn by John M. Harris, made into a contemporary tune by Andy Bromley. The lyrics speak about the wonders of finding our salvation in Christ and what that means in relation to our sin, our relationship with God, and our eternity spent with Him.

Romans 3:21-24 tells us that there is a righteousness from God that comes through faith in Jesus Christ. All of us have sinned, but have been justified freely by God's grace through Christ's sacrifice for us. What this means is that our sins have been atoned for, that we are now God's children because of Christ's righteousness, and that we shall reign with Him in eternity because of the salvation Christ has brought us. Indeed this is something that we should be praising God for, declaring that He is our wonderful Saviour.





----------------------------------------------------------------------------
WONDERFUL SAVIOUR – John M. Harris / Andy Bromley
----------------------------------------------------------------------------
Tabbed by: Graham Choo
Email: da_tweens@yahoo.co.uk

Tuning: Standard (Capo 2nd Fret)
Intro:
   Em  C9  G   Em  C9  G
e|-3---3---3---3---3---3-----------------------------------------|
B|-3---3---3---3---3---3-----------------------------------------|
G|-0---0---0---0---0---0-----------------------------------------|
D|-2---2---0---2---2---0-----------------------------------------|
A|-2---3---2---2---3---2-----------------------------------------|
E|-0-------3---0-------3-----------------------------------------|

Verse:
   Em  C9  G   Em  C9  D   C9  G   C9  D   G
e|-3---3---3---3---3---2---3---3---3---2---3---------------------|
B|-3---3---3---3---3---3---3---3---3---3---3---------------------|
G|-0---0---0---0---0---2---0---0---0---2---0---------------------|
D|-2---2---0---2---2---0---2---0---2---0---0---------------------|
A|-2---3---2---2---3-------3---2---3-------2---------------------|
E|-0-------3---0---------------3-----------3---------------------|

Chorus:
   C9  G   C9  D   Em  C9  D   G   C9  D   C9  D
e|-3---3---3---2---3---3---2---3---3---2---3---2-----------------|
B|-3---3---3---3---3---3---3---3---3---3---3---3-----------------|
G|-0---0---0---2---0---0---2---0---0---2---0---2-----------------|
D|-2---0---2---0---2---2---0---0---2---0---2---0-----------------|
A|-3---2---3-------2---3-------2---3-------3---------------------|
E|-----3-----------0-----------3---------------------------------|

Interlude 1:
   Em  C9  G
e|-3---3---3-----------------------------------------------------|
B|-3---3---3-----------------------------------------------------|
G|-0---0---0-----------------------------------------------------|
D|-2---2---0-----------------------------------------------------|
A|-2---3---2-----------------------------------------------------|
E|-0-------3-----------------------------------------------------|

Verse

Chorus

Interlude 1

Verse

Chorus

Interlude 1

Verse

Chorus

Interlude 2:
   G
e|-3-------------------------------------------------------------|
B|-3-------------------------------------------------------------|
G|-0-------------------------------------------------------------|
D|-0-------------------------------------------------------------|
A|-2-------------------------------------------------------------|
E|-3-------------------------------------------------------------|

Chorus

Intro

| /  slide up
| \  slide down
| h  hammer-on
| p  pull-off
| ~  vibrato
| +  harmonic
| x  Mute note

Click HERE To Download PDF

4 comments:

Russell Dodge said...

Great Song! I can't find the lyrics though! I started working on this the minute I saw your video! :) You do an amazing job! Keep it up.


-Russell

Graham Choo said...

Hey Russell, actually for all the Christian songs we put up on YouTube, we write the lyrics in the video description. Just click on the "more info" hyperlink below the username and date on the right.
http://www.youtube.com/watch?v=za85cw47smI

lixue said...

I recently came accross your blog and have been reading along. I thought I would leave my first comment. I dont know what to say except that I have enjoyed reading. Nice blog. I will keep visiting this blog very often.


Susan

http://disturbialyrics.net

Anonymous said...

This became what I was looking for! Thanks to you!