Monday, May 10, 2010

There Is None Like You

There Is None Like You (Album Version)A worship song by Lenny LeBlanc. In Isaiah 46:1-13, God asserts that there is none like Him. Other gods cannot save Israel from captivity. But it is God who has sustained them and will rescue them (Isaiah 46:3-4). And He will bring about their salvation, which He had planned to do, bringing His righteousness near them (Isaiah 46:12-13)

Isn't it amazing that while Israel was still far from righteousness, God chose to bring His righteousness near and grant them salvation? Indeed there is none like God, a God so generous and merciful, full of grace and love, that while we were still sinners, Christ died for us (Romans 5:8). To whom will we compare or count him equal to? We can search for all eternity long and find there is none like God.





-----------------------------------------------------------------
THERE IS NONE LIKE YOU – Lenny LeBlanc
-----------------------------------------------------------------
Tabbed by: Graham Choo
Email: da_tweens@yahoo.co.uk

Tuning: Standard
Chorus:
   G   D   Em  C9 Am7 Dsus D   G  D/F# F   C   G   D   G
e|-3---2---3---3---3---3---2---3---3---1---3---3---2---3---------|
B|-3---3---3---3---1---3---3---3---3---1---1---3---3---3---------|
G|-0---2---0---0---0---2---2---0---2---2---0---0---2---0---------|
D|-0---0---2---2---2---0---0---0---0---3---2---0---0---0---------|
A|-2-------2---3---0-----------2---0---3---3---2-------2---------|
E|-3-------0-------------------3---2---1-------3-------3---------|

Chorus

Verse:
   C9  D   G   C9  D   G   C9  D   Bm  Em Am7 Dsus D
e|-3---2---3---3---2---3---3---2---2---0---0---3---2-------------|
B|-3---3---3---3---3---3---3---3---3---0---1---3---3-------------|
G|-0---2---0---0---2---0---0---2---4---0---0---2---2-------------|
D|-2---0---0---2---0---0---2---0---4---2---2---0---0-------------|
A|-3-------2---3-------2---3-------2---2---0---------------------|
E|---------3-----------3---------------0-------------------------|

Chorus

Outro:
   G  D/F# F   C   G   D   G   C9  G
e|-3---3---1---3---3---2---3---3---3-----------------------------|
B|-3---3---1---1---3---3---3---3---3-----------------------------|
G|-0---2---2---0---0---2---0---0---0-----------------------------|
D|-0---0---3---2---0---0---0---2---0-----------------------------|
A|-2---0---3---3---2-------2---3---2-----------------------------|
E|-3---2---1-------3-------3-------3-----------------------------|

| /  slide up
| \  slide down
| h  hammer-on
| p  pull-off
| ~  vibrato
| +  harmonic
| x  Mute note

Click HERE To Download PDF

3 comments:

Jeanne said...

oh this is wonderful dan, you shld be thankful to God that got you this big and btful talent!
be blessed
Jeanne

Anonymous said...

First time I saw your video in youtube. After then sometimes I visited here to see and learn.

I want to know the song "I stand in awe of you". Could you post it?

I always appreciate to your posting. God bless you.

Anonymous said...

Hey, i would really like to say thanks for all your work done into this site. I really appreciate all the hard work you've done. I know it must have taken a long time. These videos really help me.