Wednesday, November 17, 2010

Consuming Fire

When Silence FallsA worship song by Tim Hughes. In Ephesians 5:15-20, Paul gives the church of Ephesus instructions on how to live as Christians, to live wisely, understanding God's will for them, and keep being filled by the Spirit with joy and thanksgiving to God. God here is referred to as the "consuming fire" (Hebrews 12:28-29), and bears of connotation of fear and awe.Who can come into His presence? But thanks be to Jesus who has brought us to God through His sacrifice (1 Peter 3:18).

Indeed let us pray for God's Spirit to fill us daily to give us a passion for His name, and to take full control of every aspect of our lives as we offer ourselves to His lordship. 





-----------------------------------------------------------------
CONSUMING FIRE – Tim Hughes
-----------------------------------------------------------------
Tabbed by: Graham Choo
Email: da_tweens@yahoo.co.uk

Tuning: Standard
Intro:
   Em D/F# G   C9  Em  D   C9
e|-3---3---3---3---3---2---3-------------------------------------|
B|-3---3---3---3---3---3---3-------------------------------------|
G|-0---2---0---0---0---2---0-------------------------------------|
D|-2---0---0---2---2---0---2-------------------------------------|
A|-2---0---2---3---2-------3-------------------------------------|
E|-0---2---3-------0---------------------------------------------| 
Verse:
   Em D/F# G   C9  Em  D   C9  Em D/F# G   C9  Em  D   C9
e|-3---3---3---3---3---2---3---3---3---3---3---3---2---3---------|
B|-3---3---3---3---3---3---3---3---3---3---3---3---3---3---------|
G|-0---2---0---0---0---2---0---0---2---0---0---0---2---0---------|
D|-2---0---0---2---2---0---2---2---0---0---2---2---0---2---------|
A|-2---0---2---3---2-------3---2---0---2---3---2-------3---------|
E|-0---2---3-------0-----------0---2---3-------0-----------------|
Pre-Chorus:
  Am7 G/B  D  Am7 G/B  D
e|-3---3---2---3---3---2-----------------------------------------|
B|-1---3---3---1---3---3-----------------------------------------|
G|-0---0---2---0---0---2-----------------------------------------|
D|-2---0---0---2---0---0-----------------------------------------|
A|-0---2-------0---2---------------------------------------------|
E|---------------------------------------------------------------|
Chorus 1:
   G   D   Em  C9  G   D   Em  D   C9
e|-3---2---3---3---3---2---3---2---3-----------------------------|
B|-3---3---3---3---3---3---3---3---3-----------------------------|
G|-0---2---0---0---0---2---0---2---0-----------------------------|
D|-0---0---2---2---0---0---2---0---2-----------------------------|
A|-2-------2---3---2-------2-------3-----------------------------|
E|-3-------0-------3-------0-------------------------------------| 
Verse
Pre-Chorus
Chorus 2:
   G   D   Em  C9  G   D   Em  D
e|-3---2---3---3---3---2---3---2---------------------------------|
B|-3---3---3---3---3---3---3---3---------------------------------|
G|-0---2---0---0---0---2---0---2---------------------------------|
D|-0---0---2---2---0---0---2---0---------------------------------|
A|-2-------2---3---2-------2-------------------------------------|
E|-3-------0-------3-------0-------------------------------------|
Chorus 1
Outro:
  D/C  C9 D/C  G
e|-2---3---2---3-------------------------------------------------|
B|-3---3---3---3-------------------------------------------------|
G|-0---0---0---0-------------------------------------------------|
D|-0---2---0---0-------------------------------------------------|
A|-3---3---3---2-------------------------------------------------|
E|-------------3-------------------------------------------------|
| /  slide up
| \  slide down
| h  hammer-on
| p  pull-off
| ~  vibrato
| +  harmonic
| x  Mute note

Click HERE To Download PDF

2 comments:

Michael Sanchez said...

Hello!

Just wanted to say I've been reading your blog for a while, and have now officially subscribed and love how you help music reach those who are looking for it.

Keep it up!

-Michael

Justin said...

thank you for the chords of the song.
I would have never learned this song without u daniel.
Keep up the good work and continue to glorify GOd's name.
AMEN!