Monday, November 22, 2010

Your Love Never Fails

Introducing Chris McclarneyA worship song composed by Chris McClarney, and also performed by Jesus Culture. In Romans 8:31-39, Paul encourages the church in Rome to not be afraid of persecution, for God works together for the good of those who love Him and have been called according to His purpose (Romans 8:28), and nothing can separate us from His love. And the beauty of it all is that it is God Himself who justifies those He has chosen through His Son who was given up for us all. And if God is for us, who can be against us? Who can condemn us when Christ has been raised and is at God's right hand interceding for us?

Such is the unfailing love of God which transcends all persecution, famine, nakedness - Something that Paul was all too familiar with. And through it all, he was convinced that nothing would be able to separate us from the love of God. Even if I ran away, made mistakes, suffered pain and fear, Your love never fails. 





--------------------------------------------------------------------------------
YOUR LOVE NEVER FAILS – Chris McClarney / Jesus Culture
--------------------------------------------------------------------------------
Tabbed by: Graham Choo
Email: da_tweens@yahoo.co.uk

Tuning: Standard
Intro:
   Em  C9  G   D   Em  C9  G   D
e|---------------------------------------------------------------|
B|-------------3x--------------3x--------------------------------|
G|-0x--0x--0x--2x--0x--0x--0x--2x--------------------------------|
D|-2x--2x--0x--0x--2x--2x--0x--0x--------------------------------|
A|-2x--3x--2x------2x--3x--2x------------------------------------|
E|-0x------3x------0x------3x------------------------------------|
   C9  Em  D  Dsus D   C9  Em  D  Dsus D
e|-3---3---2---3---2---3---3---2---3---2-------------------------|
B|-3---3---3---3---3---3---3---3---3---3-------------------------|
G|-0---0---2---2---2---0---0---2---2---2-------------------------|
D|-2---2---0---0---0---2---2---0---0---0-------------------------|
A|-3---2---------------3---2-------------------------------------|
E|-----0-------------------0-------------------------------------|
Verse:
   Em  C9  G   D   Em  C9  G   D   Em  C9  G   D   Em  C9  G   D
e|---------------------------------------------------------------|
B|-------------3x--------------3x--------------3x--------------3x|
G|-0x--0x--0x--2x--0x--0x--0x--2x--0x--0x--0x--2x--0x--0x--0x--2x|
D|-2x--2x--0x--0x--2x--2x--0x--0x--2x--2x--0x--0x--2x--2x--0x--0x|
A|-2x--3x--2x------2x--3x--2x------2x--3x--2x------2x--3x--2x----|
E|-0x------3x------0x------3x------0x------3x------0x------3x----|
Chorus:
   C9  G   D  Am7  C9  G   D  Am7  C9  G   D  Am7  C9  G   D
e|-3---3---2---3---3---3---2---3---3---3---2---3---3---3---2-----|
B|-3---3---3---1---3---3---3---1---3---3---3---1---3---3---3-----|
G|-0---0---2---0---0---0---2---0---0---0---2---0---0---0---2-----|
D|-2---0---0---2---2---0---0---2---2---0---0---2---2---0---0-----|
A|-3---2-------0---3---2-------0---3---2-------0---3---2---------|
E|-----3---------------3---------------3---------------3---------|
Interlude:
   C9  Em  D  Dsus D
e|-3---3---2---3---2---------------------------------------------|
B|-3---3---3---3---3---------------------------------------------|
G|-0---0---2---2---2---------------------------------------------|
D|-2---2---0---0---0---------------------------------------------|
A|-3---2---------------------------------------------------------|
E|-----0---------------------------------------------------------|
Verse
Chorus
Interlude 2x
Bridge:
   C9  Em  D  Dsus D   C9  Em  D  Dsus D
e|-3---3---2---3---2---3---3---2---3---2-------------------------|
B|-3---3---3---3---3---3---3---3---3---3-------------------------|
G|-0---0---2---2---2---0---0---2---2---2-------------------------|
D|-2---2---0---0---0---2---2---0---0---0-------------------------|
A|-3---2---------------3---2-------------------------------------|
E|-----0-------------------0-------------------------------------|
Bridge
Chorus
Interlude 2x
Outro:
   G
e|-3-------------------------------------------------------------|
B|-3-------------------------------------------------------------|
G|-0-------------------------------------------------------------|
D|-0-------------------------------------------------------------|
A|-2-------------------------------------------------------------|
E|-3-------------------------------------------------------------|
| /  slide up
| \  slide down
| h  hammer-on
| p  pull-off
| ~  vibrato
| +  harmonic
| x  Mute note

Click HERE To Download PDF

2 comments:

やăȘぎ said...

thanks, daniel choo!

God Bless you.
(in tokyo.)

razvan_92 said...

Thank you for your commitment to serve and praise our Lord and thank you for helping other glorify Him better.